  0
SECTION
  2
HEADER
  9
$ACADVER
  1
AC1004
  9
$INSBASE
 10
0.0
 20
0.0
  9
$EXTMIN
 10
-276.048135
 20
1243.200989
  9
$EXTMAX
 10
4244.960832
 20
5092.538257
  9
$LIMMIN
 10
-129.964037
 20
1243.200989
  9
$LIMMAX
 10
2844.523852
 20
5092.538257
  9
$VIEWCTR
 10
6.0
 20
4.5
  9
$VIEWSIZE
 40
9.0
  9
$SNAPMODE
 70
     0
  9
$SNAPUNIT
 10
20.0
 20
20.0
  9
$SNAPBASE
 10
0.0
 20
0.0
  9
$SNAPANG
 50
0.0
  9
$SNAPSTYLE
 70
     0
  9
$SNAPISOPAIR
 70
     0
  9
$GRIDMODE
 70
     0
  9
$GRIDUNIT
 10
20.0
 20
20.0
  9
$ORTHOMODE
 70
     1
  9
$REGENMODE
 70
     1
  9
$FILLMODE
 70
     1
  9
$QTEXTMODE
 70
     0
  9
$DRAGMODE
 70
     2
  9
$LTSCALE
 40
1.0
  9
$OSMODE
 70
     1
  9
$ATTMODE
 70
     1
  9
$TEXTSIZE
 40
0.2
  9
$TRACEWID
 40
0.05
  9
$TEXTSTYLE
  7
STANDARD
  9
$CLAYER
  8
LAYER01
  9
$CELTYPE
  6
CONTINUOUS
  9
$CECOLOR
 62
     7
  9
$DIMSCALE
 40
1.0
  9
$DIMASZ
 40
0.18
  9
$DIMEXO
 40
0.0625
  9
$DIMDLI
 40
0.38
  9
$DIMRND
 40
0.0
  9
$DIMDLE
 40
0.0
  9
$DIMEXE
 40
0.18
  9
$DIMTP
 40
0.0
  9
$DIMTM
 40
0.0
  9
$DIMTXT
 40
0.18
  9
$DIMCEN
 40
0.09
  9
$DIMTSZ
 40
0.0
  9
$DIMTOL
 70
     0
  9
$DIMLIM
 70
     0
  9
$DIMTIH
 70
     1
  9
$DIMTOH
 70
     1
  9
$DIMSE1
 70
     0
  9
$DIMSE2
 70
     0
  9
$DIMTAD
 70
     0
  9
$DIMZIN
 70
     0
  9
$DIMBLK
  1

  9
$DIMASO
 70
     1
  9
$DIMSHO
 70
     1
  9
$DIMPOST
  1

  9
$DIMAPOST
  1

  9
$DIMALT
 70
     0
  9
$DIMALTD
 70
     2
  9
$DIMALTF
 40
25.4
  9
$DIMLFAC
 40
1.0
  9
$LUNITS
 70
     2
  9
$LUPREC
 70
     4
  9
$AXISMODE
 70
     0
  9
$AXISUNIT
 10
0.0
 20
0.0
  9
$SKETCHINC
 40
0.1
  9
$FILLETRAD
 40
10.0
  9
$AUNITS
 70
     0
  9
$AUPREC
 70
     0
  9
$MENU
  1
acad
  9
$ELEVATION
 40
0.0
  9
$THICKNESS
 40
0.0
  9
$VIEWDIR
 10
0.0
 20
0.0
 30
1.0
  9
$LIMCHECK
 70
     0
  9
$BLIPMODE
 70
     1
  9
$CHAMFERA
 40
10.0
  9
$CHAMFERB
 40
10.0
  9
$FASTZOOM
 70
     1
  9
$SKPOLY
 70
     0
  9
$TDCREATE
 40
0.0
  9
$TDUPDATE
 40
0.0
  9
$TDINDWG
 40
0.0
  9
$TDUSRTIMER
 40
0.0
  9
$USRTIMER
 70
     1
  9
$ANGBASE
 50
0.0
  9
$ANGDIR
 70
     0
  9
$PDMODE
 70
     0
  9
$PDSIZE
 40
0.0
  9
$PLINEWID
 40
0.0
  9
$COORDS
 70
     1
  9
$SPLFRAME
 70
     1
  9
$SPLINESEGS
 70
    10
  9
$ATTDIA
 70
     0
  9
$ATTREQ
 70
     1
  9
$USERI1
 70
     0
  9
$USERI2
 70
     0
  9
$USERI3
 70
     0
  9
$USERI4
 70
     0
  9
$USERI5
 70
     0
  9
$USERR1
 40
0.0
  9
$USERR2
 40
0.0
  9
$USERR3
 40
0.0
  9
$USERR4
 40
0.0
  9
$USERR5
 40
0.0
  0
ENDSEC
  0
SECTION
  2
TABLES
  0
TABLE
  2
LTYPE
 70
    11
  0
LTYPE
  2
CONTINUOUS
 70
     0
  3
Solid line
 72
    65
 73
     0
 40
0.0
  0
LTYPE
  2
DASHED
 70
     0
  3
__ __ __ __ __ __ __ __ __ __ __ __ __ __ __
 72
    65
 73
     2
 40
0.75
 49
0.5
 49
-0.25
  0
LTYPE
  2
HIDDEN
 70
     0
  3
_ _ _ _ _ _ _ _ _ _ _ _ _ _ _ _ _ _ _ _ _ _ 
 72
    65
 73
     2
 40
0.25
 49
0.125
 49
-0.125
  0
LTYPE
  2
CENTER
 70
     0
  3
____ _ ____ _ ____ _ ____ _ ____ _ ____ _ __
 72
    65
 73
     4
 40
2.0
 49
1.25
 49
-0.25
 49
0.25
 49
-0.25
  0
LTYPE
  2
PHANTOM
 70
     0
  3
_____ _ _ _____ _ _ _____ _ _ _____ _ _ ____
 72
    65
 73
     6
 40
2.5
 49
1.25
 49
-0.25
 49
0.25
 49
-0.25
 49
0.25
 49
-0.25
  0
LTYPE
  2
DOT
 70
     0
  3
............................................
 72
    65
 73
     2
 40
0.25
 49
0.0
 49
-0.25
  0
LTYPE
  2
DASHDOT
 70
     0
  3
__ . __ . __ . __ . __ . __ . __ . __ . __ .
 72
    65
 73
     4
 40
1.0
 49
0.5
 49
-0.25
 49
0.0
 49
-0.25
  0
LTYPE
  2
BORDER
 70
     0
  3
__ __ . __ __ . __ __ . __ __ . __ __ . __ _
 72
    65
 73
     6
 40
1.75
 49
0.5
 49
-0.25
 49
0.5
 49
-0.25
 49
0.0
 49
-0.25
  0
LTYPE
  2
DIVIDE
 70
     0
  3
__ . . __ . . __ . . __ . . __ . . __ . . __
 72
    65
 73
     6
 40
1.25
 49
0.5
 49
-0.25
 49
0.0
 49
-0.25
 49
0.0
 49
-0.25
  0
LTYPE
  2
DOTS
 70
     0
  3
close                                       
 72
    65
 73
     2
 40
0.1
 49
0.05
 49
-0.05
  0
LTYPE
  2
CLOSE
 70
     0
  3
                                            
 72
    65
 73
     0
 40
0.0
  0
ENDTAB
  0
TABLE
  2
LAYER
 70
    30
  0
LAYER
  2
0
 70
     0
 62
     7
  6
CONTINUOUS
  0
LAYER
  2
LAYER01
 70
     0
 62
     7
  6
CONTINUOUS
  0
LAYER
  2
LAYER02
 70
     0
 62
     7
  6
CONTINUOUS
  0
LAYER
  2
LAYER03
 70
     0
 62
     7
  6
CONTINUOUS
  0
LAYER
  2
LAYER04
 70
     0
 62
     7
  6
CONTINUOUS
  0
LAYER
  2
LAYER05
 70
     0
 62
     7
  6
CONTINUOUS
  0
LAYER
  2
LAYER06
 70
     0
 62
     7
  6
CONTINUOUS
  0
LAYER
  2
LAYER07
 70
     0
 62
     7
  6
CONTINUOUS
  0
LAYER
  2
LAYER08
 70
     0
 62
     7
  6
CONTINUOUS
  0
LAYER
  2
LAYER09
 70
     0
 62
     7
  6
CONTINUOUS
  0
LAYER
  2
LAYER10
 70
     0
 62
     7
  6
CONTINUOUS
  0
LAYER
  2
CAROUSEL
 70
     0
 62
     7
  6
CONTINUOUS
  0
LAYER
  2
DEWARASSY
 70
     0
 62
     7
  6
CONTINUOUS
  0
LAYER
  2
FASTENERS
 70
     0
 62
     7
  6
CONTINUOUS
  0
LAYER
  2
ZAXIS
 70
     0
 62
     7
  6
CONTINUOUS
  0
LAYER
  2
GATEVALVE
 70
     0
 62
     7
  6
CONTINUOUS
  0
LAYER
  2
THROAT
 70
     0
 62
     7
  6
CONTINUOUS
  0
LAYER
  2
ACCESSCOVER
 70
     0
 62
     7
  6
CONTINUOUS
  0
LAYER
  2
RING
 70
     0
 62
     7
  6
CONTINUOUS
  0
LAYER
  2
2METERPLATE
 70
     0
 62
     7
  6
CONTINUOUS
  0
LAYER
  2
DELTAWINGS
 70
     0
 62
     7
  6
CONTINUOUS
  0
LAYER
  2
DIMENSIONS
 70
     0
 62
     7
  6
CONTINUOUS
  0
LAYER
  2
2-3BODY
 70
     0
 62
     7
  6
CONTINUOUS
  0
LAYER
  2
FRAME025
 70
     0
 62
     7
  6
CONTINUOUS
  0
LAYER
  2
FRAME050
 70
     0
 62
     7
  6
CONTINUOUS
  0
LAYER
  2
FRAME070
 70
     0
 62
     7
  6
CONTINUOUS
  0
LAYER
  2
NITROGENBATH
 70
     0
 62
     7
  6
CONTINUOUS
  0
LAYER
  2
FILTERWHEEL1
 70
     0
 62
     7
  6
CONTINUOUS
  0
LAYER
  2
FRAME200
 70
     0
 62
     7
  6
CONTINUOUS
  0
LAYER
  2
DELTAWINGBRACKET
 70
     0
 62
     7
  6
CONTINUOUS
  0
ENDTAB
  0
TABLE
  2
STYLE
 70
     2
  0
STYLE
  2
STANDARD
 70
     0
 40
0.0
 41
1.0
 50
0.0
 71
     0
 42
0.2
  3
txt
  4

  0
STYLE
  2
isocp
 70
     0
 40
0.0
 41
1.0
 50
0.0
 71
     0
 42
0.0
  3
isocp
  4

  0
ENDTAB
  0
TABLE
  2
VIEW
 70
     0
  0
ENDTAB
  0
ENDSEC
  0
SECTION
  2
BLOCKS
  0
BLOCK
  8
0
  2
DELTA22-G1
 70
     0
 10
0.0
 20
0.0
  0
ARC
  8
RING
  6
CONTINUOUS
 62
     7
 10
674.331301
 20
4297.326655
 40
25.5
 50
135.0
 51
315.0
  0
ARC
  8
RING
  6
CONTINUOUS
 62
     7
 10
721.550472
 20
4341.359244
 40
25.5
 50
311.0
 51
131.0
  0
ARC
  8
RING
  6
CONTINUOUS
 62
     7
 10
1328.405075
 20
3643.252882
 40
950.5
 50
131.0
 51
135.0
  0
ARC
  8
RING
  6
CONTINUOUS
 62
     7
 10
1328.405075
 20
3643.252882
 40
899.5
 50
131.0
 51
135.0
  0
LINE
  8
DELTAWINGS
  6
CONTINUOUS
 62
     3
 10
709.686641
 20
4261.971316
 11
770.717991
 21
4200.939966
  0
LINE
  8
DELTAWINGBRACKET
  6
CONTINUOUS
 62
     1
 10
868.405075
 20
4298.627051
 11
868.405075
 21
4387.581439
  0
LINE
  8
DELTAWINGBRACKET
  6
CONTINUOUS
 62
     1
 10
673.030906
 20
4103.252882
 11
584.076518
 21
4103.252882
  0
ARC
  8
DELTAWINGBRACKET
  6
CONTINUOUS
 62
     1
 10
1328.405075
 20
3643.252882
 40
875.0
 50
121.716341
 51
148.283659
  0
LINE
  8
0
  6
CONTINUOUS
 62
     7
 10
654.076545
 20
4083.252882
 11
638.076545
 21
4083.252882
  0
LINE
  8
0
  6
CONTINUOUS
 62
     7
 10
654.076545
 20
4074.502882
 11
638.076545
 21
4074.502882
  0
LINE
  8
0
  6
CONTINUOUS
 62
     7
 10
652.826545
 20
4073.252882
 11
639.326545
 21
4073.252882
  0
LINE
  8
0
  6
CONTINUOUS
 62
     7
 10
642.326545
 20
4123.252882
 11
641.076545
 21
4122.002882
  0
LINE
  8
0
  6
HIDDEN
 62
     7
 10
642.326545
 20
4083.252882
 11
642.326545
 21
4131.616046
  0
LINE
  8
0
  6
HIDDEN
 62
     7
 10
641.076545
 20
4083.252882
 11
641.076545
 21
4131.616046
  0
LINE
  8
0
  6
CONTINUOUS
 62
     7
 10
654.076545
 20
4074.502882
 11
654.076545
 21
4083.252882
  0
LINE
  8
0
  6
CONTINUOUS
 62
     7
 10
654.076545
 20
4074.502882
 11
652.826545
 21
4073.252882
  0
LINE
  8
0
  6
CONTINUOUS
 62
     7
 10
649.826545
 20
4123.252882
 11
651.076545
 21
4122.002882
  0
LINE
  8
0
  6
HIDDEN
 62
     7
 10
646.076545
 20
4134.502882
 11
651.076545
 21
4131.616046
  0
LINE
  8
0
  6
HIDDEN
 62
     7
 10
649.826545
 20
4083.252882
 11
649.826545
 21
4131.616046
  0
LINE
  8
0
  6
HIDDEN
 62
     7
 10
651.076545
 20
4083.252882
 11
651.076545
 21
4131.616046
  0
LINE
  8
0
  6
CENTER
 62
     7
 10
646.076545
 20
4070.006566
 11
646.076545
 21
4137.263687
  0
LINE
  8
0
  6
HIDDEN
 62
     7
 10
651.076545
 20
4131.616046
 11
641.076545
 21
4131.616046
  0
LINE
  8
0
  6
HIDDEN
 62
     7
 10
646.076545
 20
4134.502882
 11
641.076545
 21
4131.616046
  0
LINE
  8
0
  6
HIDDEN
 62
     7
 10
651.076545
 20
4122.002882
 11
641.076545
 21
4122.002882
  0
LINE
  8
0
  6
HIDDEN
 62
     7
 10
649.826545
 20
4123.252882
 11
642.326545
 21
4123.252882
  0
LINE
  8
0
  6
CONTINUOUS
 62
     7
 10
638.076545
 20
4074.502882
 11
638.076545
 21
4083.252882
  0
LINE
  8
0
  6
CONTINUOUS
 62
     7
 10
638.076545
 20
4074.502882
 11
639.326545
 21
4073.252882
  0
LINE
  8
0
  6
CONTINUOUS
 62
     7
 10
614.076518
 20
4083.252882
 11
598.076518
 21
4083.252882
  0
LINE
  8
0
  6
CONTINUOUS
 62
     7
 10
614.076518
 20
4074.502882
 11
598.076518
 21
4074.502882
  0
LINE
  8
0
  6
CONTINUOUS
 62
     7
 10
612.826518
 20
4073.252882
 11
599.326518
 21
4073.252882
  0
LINE
  8
0
  6
CONTINUOUS
 62
     7
 10
602.326518
 20
4123.252882
 11
601.076518
 21
4122.002882
  0
LINE
  8
0
  6
HIDDEN
 62
     7
 10
602.326518
 20
4083.252882
 11
602.326518
 21
4131.616046
  0
LINE
  8
0
  6
HIDDEN
 62
     7
 10
601.076518
 20
4083.252882
 11
601.076518
 21
4131.616046
  0
LINE
  8
0
  6
CONTINUOUS
 62
     7
 10
614.076518
 20
4074.502882
 11
614.076518
 21
4083.252882
  0
LINE
  8
0
  6
CONTINUOUS
 62
     7
 10
614.076518
 20
4074.502882
 11
612.826518
 21
4073.252882
  0
LINE
  8
0
  6
CONTINUOUS
 62
     7
 10
609.826518
 20
4123.252882
 11
611.076518
 21
4122.002882
  0
LINE
  8
0
  6
HIDDEN
 62
     7
 10
606.076518
 20
4134.502882
 11
611.076518
 21
4131.616046
  0
LINE
  8
0
  6
HIDDEN
 62
     7
 10
609.826518
 20
4083.252882
 11
609.826518
 21
4131.616046
  0
LINE
  8
0
  6
HIDDEN
 62
     7
 10
611.076518
 20
4083.252882
 11
611.076518
 21
4131.616046
  0
LINE
  8
0
  6
CENTER
 62
     7
 10
606.076518
 20
4070.006566
 11
606.076518
 21
4137.263687
  0
LINE
  8
0
  6
HIDDEN
 62
     7
 10
611.076518
 20
4131.616046
 11
601.076518
 21
4131.616046
  0
LINE
  8
0
  6
HIDDEN
 62
     7
 10
606.076518
 20
4134.502882
 11
601.076518
 21
4131.616046
  0
LINE
  8
0
  6
HIDDEN
 62
     7
 10
611.076518
 20
4122.002882
 11
601.076518
 21
4122.002882
  0
LINE
  8
0
  6
HIDDEN
 62
     7
 10
609.826518
 20
4123.252882
 11
602.326518
 21
4123.252882
  0
LINE
  8
0
  6
CONTINUOUS
 62
     7
 10
598.076518
 20
4074.502882
 11
598.076518
 21
4083.252882
  0
LINE
  8
0
  6
CONTINUOUS
 62
     7
 10
598.076518
 20
4074.502882
 11
599.326518
 21
4073.252882
  0
LINE
  8
0
  6
CONTINUOUS
 62
     7
 10
888.405075
 20
4333.581439
 11
888.405075
 21
4317.581439
  0
LINE
  8
0
  6
CONTINUOUS
 62
     7
 10
897.155075
 20
4333.581439
 11
897.155075
 21
4317.581439
  0
LINE
  8
0
  6
CONTINUOUS
 62
     7
 10
898.405075
 20
4332.331439
 11
898.405075
 21
4318.831439
  0
LINE
  8
0
  6
CONTINUOUS
 62
     7
 10
848.405075
 20
4321.831439
 11
849.655075
 21
4320.581439
  0
LINE
  8
0
  6
HIDDEN
 62
     7
 10
888.405075
 20
4321.831439
 11
840.041911
 21
4321.831439
  0
LINE
  8
0
  6
HIDDEN
 62
     7
 10
888.405075
 20
4320.581439
 11
840.041911
 21
4320.581439
  0
LINE
  8
0
  6
CONTINUOUS
 62
     7
 10
897.155075
 20
4333.581439
 11
888.405075
 21
4333.581439
  0
LINE
  8
0
  6
CONTINUOUS
 62
     7
 10
897.155075
 20
4333.581439
 11
898.405075
 21
4332.331439
  0
LINE
  8
0
  6
CONTINUOUS
 62
     7
 10
848.405075
 20
4329.331439
 11
849.655075
 21
4330.581439
  0
LINE
  8
0
  6
HIDDEN
 62
     7
 10
837.155075
 20
4325.581439
 11
840.041911
 21
4330.581439
  0
LINE
  8
0
  6
HIDDEN
 62
     7
 10
888.405075
 20
4329.331439
 11
840.041911
 21
4329.331439
  0
LINE
  8
0
  6
HIDDEN
 62
     7
 10
888.405075
 20
4330.581439
 11
840.041911
 21
4330.581439
  0
LINE
  8
0
  6
CENTER
 62
     7
 10
901.651391
 20
4325.581439
 11
834.39427
 21
4325.581439
  0
LINE
  8
0
  6
HIDDEN
 62
     7
 10
840.041911
 20
4330.581439
 11
840.041911
 21
4320.581439
  0
LINE
  8
0
  6
HIDDEN
 62
     7
 10
837.155075
 20
4325.581439
 11
840.041911
 21
4320.581439
  0
LINE
  8
0
  6
HIDDEN
 62
     7
 10
849.655075
 20
4330.581439
 11
849.655075
 21
4320.581439
  0
LINE
  8
0
  6
HIDDEN
 62
     7
 10
848.405075
 20
4329.331439
 11
848.405075
 21
4321.831439
  0
LINE
  8
0
  6
CONTINUOUS
 62
     7
 10
897.155075
 20
4317.581439
 11
888.405075
 21
4317.581439
  0
LINE
  8
0
  6
CONTINUOUS
 62
     7
 10
897.155075
 20
4317.581439
 11
898.405075
 21
4318.831439
  0
LINE
  8
0
  6
CONTINUOUS
 62
     7
 10
888.405075
 20
4373.581439
 11
888.405075
 21
4357.581439
  0
LINE
  8
0
  6
CONTINUOUS
 62
     7
 10
897.155075
 20
4373.581439
 11
897.155075
 21
4357.581439
  0
LINE
  8
0
  6
CONTINUOUS
 62
     7
 10
898.405075
 20
4372.331439
 11
898.405075
 21
4358.831439
  0
LINE
  8
0
  6
CONTINUOUS
 62
     7
 10
848.405075
 20
4361.831439
 11
849.655075
 21
4360.581439
  0
LINE
  8
0
  6
HIDDEN
 62
     7
 10
888.405075
 20
4361.831439
 11
840.041911
 21
4361.831439
  0
LINE
  8
0
  6
HIDDEN
 62
     7
 10
888.405075
 20
4360.581439
 11
840.041911
 21
4360.581439
  0
LINE
  8
0
  6
CONTINUOUS
 62
     7
 10
897.155075
 20
4373.581439
 11
888.405075
 21
4373.581439
  0
LINE
  8
0
  6
CONTINUOUS
 62
     7
 10
897.155075
 20
4373.581439
 11
898.405075
 21
4372.331439
  0
LINE
  8
0
  6
CONTINUOUS
 62
     7
 10
848.405075
 20
4369.331439
 11
849.655075
 21
4370.581439
  0
LINE
  8
0
  6
HIDDEN
 62
     7
 10
837.155075
 20
4365.581439
 11
840.041911
 21
4370.581439
  0
LINE
  8
0
  6
HIDDEN
 62
     7
 10
888.405075
 20
4369.331439
 11
840.041911
 21
4369.331439
  0
LINE
  8
0
  6
HIDDEN
 62
     7
 10
888.405075
 20
4370.581439
 11
840.041911
 21
4370.581439
  0
LINE
  8
0
  6
CENTER
 62
     7
 10
901.651391
 20
4365.581439
 11
834.39427
 21
4365.581439
  0
LINE
  8
0
  6
HIDDEN
 62
     7
 10
840.041911
 20
4370.581439
 11
840.041911
 21
4360.581439
  0
LINE
  8
0
  6
HIDDEN
 62
     7
 10
837.155075
 20
4365.581439
 11
840.041911
 21
4360.581439
  0
LINE
  8
0
  6
HIDDEN
 62
     7
 10
849.655075
 20
4370.581439
 11
849.655075
 21
4360.581439
  0
LINE
  8
0
  6
HIDDEN
 62
     7
 10
848.405075
 20
4369.331439
 11
848.405075
 21
4361.831439
  0
LINE
  8
0
  6
CONTINUOUS
 62
     7
 10
897.155075
 20
4357.581439
 11
888.405075
 21
4357.581439
  0
LINE
  8
0
  6
CONTINUOUS
 62
     7
 10
897.155075
 20
4357.581439
 11
898.405075
 21
4358.831439
  0
LINE
  8
DELTAWINGBRACKET
  6
CONTINUOUS
 62
     1
 10
673.030906
 20
4103.252882
 11
868.405075
 21
4298.627051
  0
CIRCLE
  8
DELTAWINGBRACKET
  6
HIDDEN
 62
     1
 10
740.202316
 20
4231.455641
 40
4.0
  0
CIRCLE
  8
DELTAWINGBRACKET
  6
HIDDEN
 62
     1
 10
740.202316
 20
4231.455641
 40
5.0
  0
CIRCLE
  8
DELTAWINGBRACKET
  6
HIDDEN
 62
     1
 10
803.841926
 20
4295.095251
 40
5.0
  0
CIRCLE
  8
DELTAWINGBRACKET
  6
HIDDEN
 62
     1
 10
803.841926
 20
4295.095251
 40
4.0
  0
CIRCLE
  8
DELTAWINGBRACKET
  6
HIDDEN
 62
     1
 10
676.562706
 20
4167.816031
 40
5.0
  0
CIRCLE
  8
DELTAWINGBRACKET
  6
HIDDEN
 62
     1
 10
676.562706
 20
4167.816031
 40
4.0
  0
CIRCLE
  8
DELTAWINGBRACKET
  6
HIDDEN
 62
     1
 10
722.524646
 20
4249.133311
 40
5.0
  0
CIRCLE
  8
DELTAWINGBRACKET
  6
HIDDEN
 62
     1
 10
722.524646
 20
4249.133311
 40
4.0
  0
CIRCLE
  8
DELTAWINGBRACKET
  6
HIDDEN
 62
     1
 10
658.885036
 20
4185.4937
 40
4.0
  0
CIRCLE
  8
DELTAWINGBRACKET
  6
HIDDEN
 62
     1
 10
658.885036
 20
4185.4937
 40
5.0
  0
CIRCLE
  8
DELTAWINGBRACKET
  6
HIDDEN
 62
     1
 10
786.164257
 20
4312.772921
 40
4.0
  0
CIRCLE
  8
DELTAWINGBRACKET
  6
HIDDEN
 62
     1
 10
786.164257
 20
4312.772921
 40
5.0
  0
CIRCLE
  8
DELTAWINGBRACKET
  6
HIDDEN
 62
     1
 10
757.879985
 20
4213.777971
 40
5.0
  0
CIRCLE
  8
DELTAWINGBRACKET
  6
HIDDEN
 62
     1
 10
757.879985
 20
4213.777971
 40
4.0
  0
CIRCLE
  8
DELTAWINGBRACKET
  6
HIDDEN
 62
     1
 10
694.240375
 20
4150.138361
 40
4.0
  0
CIRCLE
  8
DELTAWINGBRACKET
  6
HIDDEN
 62
     1
 10
694.240375
 20
4150.138361
 40
5.0
  0
CIRCLE
  8
DELTAWINGBRACKET
  6
HIDDEN
 62
     1
 10
821.519596
 20
4277.417582
 40
4.0
  0
CIRCLE
  8
DELTAWINGBRACKET
  6
HIDDEN
 62
     1
 10
821.519596
 20
4277.417582
 40
5.0
  0
LINE
  8
DELTAWINGS
  6
CONTINUOUS
 62
     3
 10
620.591187
 20
4188.43221
 11
681.622536
 21
4127.400861
  0
LINE
  8
DELTAWINGS
  6
CONTINUOUS
 62
     3
 10
791.003921
 20
4343.288595
 11
852.03527
 21
4282.257246
  0
LINE
  8
DELTAWINGS
  6
CONTINUOUS
 62
     3
 10
750.345281
 20
4302.629956
 11
811.37663
 21
4241.598606
  0
LINE
  8
DELTAWINGS
  6
CONTINUOUS
 62
     3
 10
669.028001
 20
4221.312676
 11
730.059351
 21
4160.281326
  0
LINE
  8
0
  6
CENTER
 62
     7
 10
690.989096
 20
4118.034301
 11
608.075791
 21
4200.947606
  0
LINE
  8
0
  6
HIDDEN
 62
     7
 10
684.274187
 20
4130.052511
 11
621.51846
 21
4192.808238
  0
LINE
  8
0
  6
HIDDEN
 62
     7
 10
685.15807
 20
4130.936395
 11
622.402343
 21
4193.692122
  0
LINE
  8
0
  6
HIDDEN
 62
     7
 10
678.970886
 20
4124.749211
 11
616.215159
 21
4187.504937
  0
LINE
  8
0
  6
HIDDEN
 62
     7
 10
678.087002
 20
4123.865327
 11
615.331275
 21
4186.621054
  0
LINE
  8
0
  6
HIDDEN
 62
     7
 10
687.27939
 20
4133.057715
 11
675.965682
 21
4121.744007
  0
LINE
  8
0
  6
HIDDEN
 62
     7
 10
693.466575
 20
4126.870531
 11
682.152866
 21
4115.556822
  0
LINE
  8
0
  6
HIDDEN
 62
     7
 10
693.466575
 20
4125.102764
 11
683.920633
 21
4115.556822
  0
LINE
  8
0
  6
HIDDEN
 62
     7
 10
682.152866
 20
4115.556822
 11
683.920633
 21
4115.556822
  0
LINE
  8
0
  6
HIDDEN
 62
     7
 10
683.743856
 20
4113.965832
 11
675.965682
 21
4121.744007
  0
LINE
  8
0
  6
HIDDEN
 62
     7
 10
693.466575
 20
4126.870531
 11
693.466575
 21
4125.102764
  0
LINE
  8
0
  6
HIDDEN
 62
     7
 10
695.057565
 20
4125.279541
 11
687.27939
 21
4133.057715
  0
LINE
  8
0
  6
CONTINUOUS
 62
     7
 10
615.331275
 20
4188.388821
 11
615.331275
 21
4186.621054
  0
LINE
  8
0
  6
CONTINUOUS
 62
     7
 10
620.634576
 20
4193.692122
 11
622.402343
 21
4193.692122
  0
LINE
  8
0
  6
HIDDEN
 62
     7
 10
622.402343
 20
4193.692122
 11
615.331275
 21
4186.621054
  0
LINE
  8
0
  6
HIDDEN
 62
     7
 10
620.634576
 20
4193.692122
 11
615.331275
 21
4188.388821
  0
LINE
  8
0
  6
CONTINUOUS
 62
     7
 10
655.989915
 20
4229.047461
 11
655.989915
 21
4227.279694
  0
LINE
  8
0
  6
HIDDEN
 62
     7
 10
661.293216
 20
4234.350762
 11
655.989915
 21
4229.047461
  0
LINE
  8
0
  6
CONTINUOUS
 62
     7
 10
661.293216
 20
4234.350762
 11
663.060983
 21
4234.350762
  0
LINE
  8
0
  6
HIDDEN
 62
     7
 10
663.060983
 20
4234.350762
 11
655.989915
 21
4227.279694
  0
LINE
  8
0
  6
HIDDEN
 62
     7
 10
725.81671
 20
4171.595035
 11
663.060983
 21
4234.350762
  0
LINE
  8
DELTAWINGS
  6
CONTINUOUS
 62
     3
 10
661.249827
 20
4229.09085
 11
722.281176
 21
4168.059501
  0
LINE
  8
0
  6
CENTER
 62
     7
 10
731.647736
 20
4158.692941
 11
648.734431
 21
4241.606246
  0
LINE
  8
0
  6
HIDDEN
 62
     7
 10
724.932826
 20
4170.711151
 11
662.1771
 21
4233.466878
  0
LINE
  8
0
  6
HIDDEN
 62
     7
 10
719.629526
 20
4165.407851
 11
656.873799
 21
4228.163577
  0
LINE
  8
0
  6
HIDDEN
 62
     7
 10
718.745642
 20
4164.523967
 11
655.989915
 21
4227.279694
  0
LINE
  8
0
  6
HIDDEN
 62
     7
 10
727.93803
 20
4173.716355
 11
716.624322
 21
4162.402647
  0
LINE
  8
0
  6
HIDDEN
 62
     7
 10
734.125215
 20
4167.529171
 11
722.811506
 21
4156.215462
  0
LINE
  8
0
  6
HIDDEN
 62
     7
 10
734.125215
 20
4165.761404
 11
724.579273
 21
4156.215462
  0
LINE
  8
0
  6
HIDDEN
 62
     7
 10
722.811506
 20
4156.215462
 11
724.579273
 21
4156.215462
  0
LINE
  8
0
  6
HIDDEN
 62
     7
 10
724.402496
 20
4154.624472
 11
716.624322
 21
4162.402647
  0
LINE
  8
0
  6
HIDDEN
 62
     7
 10
734.125215
 20
4167.529171
 11
734.125215
 21
4165.761404
  0
LINE
  8
0
  6
HIDDEN
 62
     7
 10
735.716205
 20
4165.938181
 11
727.93803
 21
4173.716355
  0
LINE
  8
0
  6
CONTINUOUS
 62
     7
 10
737.307195
 20
4310.364741
 11
737.307195
 21
4308.596974
  0
LINE
  8
0
  6
HIDDEN
 62
     7
 10
742.610496
 20
4315.668042
 11
737.307195
 21
4310.364741
  0
LINE
  8
0
  6
CONTINUOUS
 62
     7
 10
742.610496
 20
4315.668042
 11
744.378263
 21
4315.668042
  0
LINE
  8
0
  6
HIDDEN
 62
     7
 10
744.378263
 20
4315.668042
 11
737.307195
 21
4308.596974
  0
LINE
  8
0
  6
HIDDEN
 62
     7
 10
785.036903
 20
4356.326681
 11
777.965835
 21
4349.255614
  0
LINE
  8
0
  6
CONTINUOUS
 62
     7
 10
783.269136
 20
4356.326681
 11
785.036903
 21
4356.326681
  0
LINE
  8
0
  6
HIDDEN
 62
     7
 10
783.269136
 20
4356.326681
 11
777.965835
 21
4351.023381
  0
LINE
  8
0
  6
CONTINUOUS
 62
     7
 10
777.965835
 20
4351.023381
 11
777.965835
 21
4349.255614
  0
LINE
  8
0
  6
HIDDEN
 62
     7
 10
840.721562
 20
4286.499887
 11
777.965835
 21
4349.255614
  0
LINE
  8
0
  6
HIDDEN
 62
     7
 10
841.605445
 20
4287.38377
 11
778.849719
 21
4350.139497
  0
LINE
  8
0
  6
HIDDEN
 62
     7
 10
846.908746
 20
4292.687071
 11
784.153019
 21
4355.442798
  0
LINE
  8
0
  6
CENTER
 62
     7
 10
853.623656
 20
4280.668861
 11
770.71035
 21
4363.582166
  0
LINE
  8
DELTAWINGS
  6
CONTINUOUS
 62
     3
 10
783.225746
 20
4351.06677
 11
844.257096
 21
4290.035421
  0
LINE
  8
0
  6
HIDDEN
 62
     7
 10
847.79263
 20
4293.570955
 11
785.036903
 21
4356.326681
  0
LINE
  8
DELTAWINGS
  6
CONTINUOUS
 62
     3
 10
791.003921
 20
4343.288595
 11
852.03527
 21
4282.257246
  0
LINE
  8
0
  6
HIDDEN
 62
     7
 10
807.13399
 20
4252.912315
 11
744.378263
 21
4315.668042
  0
LINE
  8
DELTAWINGS
  6
CONTINUOUS
 62
     3
 10
742.567107
 20
4310.40813
 11
803.598456
 21
4249.376781
  0
LINE
  8
0
  6
CENTER
 62
     7
 10
812.965016
 20
4240.010221
 11
730.05171
 21
4322.923526
  0
LINE
  8
0
  6
HIDDEN
 62
     7
 10
806.250106
 20
4252.028431
 11
743.494379
 21
4314.784158
  0
LINE
  8
0
  6
HIDDEN
 62
     7
 10
800.946805
 20
4246.72513
 11
738.191079
 21
4309.480857
  0
LINE
  8
0
  6
HIDDEN
 62
     7
 10
800.062922
 20
4245.841247
 11
737.307195
 21
4308.596974
  0
LINE
  8
0
  6
HIDDEN
 62
     7
 10
809.25531
 20
4255.033635
 11
797.941602
 21
4243.719927
  0
LINE
  8
0
  6
HIDDEN
 62
     7
 10
815.442494
 20
4248.846451
 11
804.128786
 21
4237.532742
  0
LINE
  8
0
  6
HIDDEN
 62
     7
 10
815.442494
 20
4247.078684
 11
805.896553
 21
4237.532742
  0
LINE
  8
0
  6
HIDDEN
 62
     7
 10
804.128786
 20
4237.532742
 11
805.896553
 21
4237.532742
  0
LINE
  8
0
  6
HIDDEN
 62
     7
 10
805.719776
 20
4235.941752
 11
797.941602
 21
4243.719927
  0
LINE
  8
0
  6
HIDDEN
 62
     7
 10
815.442494
 20
4248.846451
 11
815.442494
 21
4247.078684
  0
LINE
  8
0
  6
HIDDEN
 62
     7
 10
817.033485
 20
4247.25546
 11
809.25531
 21
4255.033635
  0
LINE
  8
0
  6
HIDDEN
 62
     7
 10
857.692125
 20
4287.9141
 11
849.91395
 21
4295.692275
  0
LINE
  8
0
  6
HIDDEN
 62
     7
 10
856.101134
 20
4289.505091
 11
856.101134
 21
4287.737324
  0
LINE
  8
0
  6
HIDDEN
 62
     7
 10
846.378416
 20
4276.600392
 11
838.600242
 21
4284.378566
  0
LINE
  8
0
  6
HIDDEN
 62
     7
 10
844.787426
 20
4278.191382
 11
846.555193
 21
4278.191382
  0
LINE
  8
0
  6
HIDDEN
 62
     7
 10
856.101134
 20
4287.737324
 11
846.555193
 21
4278.191382
  0
LINE
  8
0
  6
HIDDEN
 62
     7
 10
856.101134
 20
4289.505091
 11
844.787426
 21
4278.191382
  0
LINE
  8
0
  6
HIDDEN
 62
     7
 10
849.91395
 20
4295.692275
 11
838.600242
 21
4284.378566
  0
ENDBLK
  8
0
  0
BLOCK
  8
0
  2
DELTA22-G2
 70
     0
 10
0.0
 20
0.0
  0
ARC
  8
RING
  6
CONTINUOUS
 62
     7
 10
674.331301
 20
2989.179107
 40
25.5
 50
225.0
 51
45.0
  0
ARC
  8
RING
  6
CONTINUOUS
 62
     7
 10
630.298712
 20
3036.398278
 40
25.5
 50
41.0
 51
221.0
  0
ARC
  8
RING
  6
CONTINUOUS
 62
     7
 10
1328.405074
 20
3643.252881
 40
950.5
 50
221.0
 51
225.0
  0
ARC
  8
RING
  6
CONTINUOUS
 62
     7
 10
1328.405074
 20
3643.252881
 40
899.5
 50
221.0
 51
225.0
  0
LINE
  8
DELTAWINGS
  6
CONTINUOUS
 62
     3
 10
709.68664
 20
3024.534447
 11
770.71799
 21
3085.565797
  0
LINE
  8
DELTAWINGBRACKET
  6
CONTINUOUS
 62
     1
 10
673.030905
 20
3183.252881
 11
584.076517
 21
3183.252881
  0
LINE
  8
DELTAWINGBRACKET
  6
CONTINUOUS
 62
     1
 10
868.405074
 20
2987.878712
 11
868.405074
 21
2898.924324
  0
ARC
  8
DELTAWINGBRACKET
  6
CONTINUOUS
 62
     1
 10
1328.405074
 20
3643.252881
 40
875.0
 50
211.716341
 51
238.283659
  0
LINE
  8
0
  6
CONTINUOUS
 62
     7
 10
888.405074
 20
2968.924351
 11
888.405074
 21
2952.924351
  0
LINE
  8
0
  6
CONTINUOUS
 62
     7
 10
897.155074
 20
2968.924351
 11
897.155074
 21
2952.924351
  0
LINE
  8
0
  6
CONTINUOUS
 62
     7
 10
898.405074
 20
2967.674351
 11
898.405074
 21
2954.174351
  0
LINE
  8
0
  6
CONTINUOUS
 62
     7
 10
848.405074
 20
2957.174351
 11
849.655074
 21
2955.924351
  0
LINE
  8
0
  6
HIDDEN
 62
     7
 10
888.405074
 20
2957.174351
 11
840.04191
 21
2957.174351
  0
LINE
  8
0
  6
HIDDEN
 62
     7
 10
888.405074
 20
2955.924351
 11
840.04191
 21
2955.924351
  0
LINE
  8
0
  6
CONTINUOUS
 62
     7
 10
897.155074
 20
2968.924351
 11
888.405074
 21
2968.924351
  0
LINE
  8
0
  6
CONTINUOUS
 62
     7
 10
897.155074
 20
2968.924351
 11
898.405074
 21
2967.674351
  0
LINE
  8
0
  6
CONTINUOUS
 62
     7
 10
848.405074
 20
2964.674351
 11
849.655074
 21
2965.924351
  0
LINE
  8
0
  6
HIDDEN
 62
     7
 10
837.155074
 20
2960.924351
 11
840.04191
 21
2965.924351
  0
LINE
  8
0
  6
HIDDEN
 62
     7
 10
888.405074
 20
2964.674351
 11
840.04191
 21
2964.674351
  0
LINE
  8
0
  6
HIDDEN
 62
     7
 10
888.405074
 20
2965.924351
 11
840.04191
 21
2965.924351
  0
LINE
  8
0
  6
CENTER
 62
     7
 10
901.65139
 20
2960.924351
 11
834.394269
 21
2960.924351
  0
LINE
  8
0
  6
HIDDEN
 62
     7
 10
840.04191
 20
2965.924351
 11
840.04191
 21
2955.924351
  0
LINE
  8
0
  6
HIDDEN
 62
     7
 10
837.155074
 20
2960.924351
 11
840.04191
 21
2955.924351
  0
LINE
  8
0
  6
HIDDEN
 62
     7
 10
849.655074
 20
2965.924351
 11
849.655074
 21
2955.924351
  0
LINE
  8
0
  6
HIDDEN
 62
     7
 10
848.405074
 20
2964.674351
 11
848.405074
 21
2957.174351
  0
LINE
  8
0
  6
CONTINUOUS
 62
     7
 10
897.155074
 20
2952.924351
 11
888.405074
 21
2952.924351
  0
LINE
  8
0
  6
CONTINUOUS
 62
     7
 10
897.155074
 20
2952.924351
 11
898.405074
 21
2954.174351
  0
LINE
  8
0
  6
CONTINUOUS
 62
     7
 10
888.405074
 20
2928.924324
 11
888.405074
 21
2912.924324
  0
LINE
  8
0
  6
CONTINUOUS
 62
     7
 10
897.155074
 20
2928.924324
 11
897.155074
 21
2912.924324
  0
LINE
  8
0
  6
CONTINUOUS
 62
     7
 10
898.405074
 20
2927.674324
 11
898.405074
 21
2914.174324
  0
LINE
  8
0
  6
CONTINUOUS
 62
     7
 10
848.405074
 20
2917.174324
 11
849.655074
 21
2915.924324
  0
LINE
  8
0
  6
HIDDEN
 62
     7
 10
888.405074
 20
2917.174324
 11
840.04191
 21
2917.174324
  0
LINE
  8
0
  6
HIDDEN
 62
     7
 10
888.405074
 20
2915.924324
 11
840.04191
 21
2915.924324
  0
LINE
  8
0
  6
CONTINUOUS
 62
     7
 10
897.155074
 20
2928.924324
 11
888.405074
 21
2928.924324
  0
LINE
  8
0
  6
CONTINUOUS
 62
     7
 10
897.155074
 20
2928.924324
 11
898.405074
 21
2927.674324
  0
LINE
  8
0
  6
CONTINUOUS
 62
     7
 10
848.405074
 20
2924.674324
 11
849.655074
 21
2925.924324
  0
LINE
  8
0
  6
HIDDEN
 62
     7
 10
837.155074
 20
2920.924324
 11
840.04191
 21
2925.924324
  0
LINE
  8
0
  6
HIDDEN
 62
     7
 10
888.405074
 20
2924.674324
 11
840.04191
 21
2924.674324
  0
LINE
  8
0
  6
HIDDEN
 62
     7
 10
888.405074
 20
2925.924324
 11
840.04191
 21
2925.924324
  0
LINE
  8
0
  6
CENTER
 62
     7
 10
901.65139
 20
2920.924324
 11
834.394269
 21
2920.924324
  0
LINE
  8
0
  6
HIDDEN
 62
     7
 10
840.04191
 20
2925.924324
 11
840.04191
 21
2915.924324
  0
LINE
  8
0
  6
HIDDEN
 62
     7
 10
837.155074
 20
2920.924324
 11
840.04191
 21
2915.924324
  0
LINE
  8
0
  6
HIDDEN
 62
     7
 10
849.655074
 20
2925.924324
 11
849.655074
 21
2915.924324
  0
LINE
  8
0
  6
HIDDEN
 62
     7
 10
848.405074
 20
2924.674324
 11
848.405074
 21
2917.174324
  0
LINE
  8
0
  6
CONTINUOUS
 62
     7
 10
897.155074
 20
2912.924324
 11
888.405074
 21
2912.924324
  0
LINE
  8
0
  6
CONTINUOUS
 62
     7
 10
897.155074
 20
2912.924324
 11
898.405074
 21
2914.174324
  0
LINE
  8
0
  6
CONTINUOUS
 62
     7
 10
638.076517
 20
3203.252881
 11
654.076517
 21
3203.252881
  0
LINE
  8
0
  6
CONTINUOUS
 62
     7
 10
638.076517
 20
3212.002881
 11
654.076517
 21
3212.002881
  0
LINE
  8
0
  6
CONTINUOUS
 62
     7
 10
639.326517
 20
3213.252881
 11
652.826517
 21
3213.252881
  0
LINE
  8
0
  6
CONTINUOUS
 62
     7
 10
649.826517
 20
3163.252881
 11
651.076517
 21
3164.502881
  0
LINE
  8
0
  6
HIDDEN
 62
     7
 10
649.826517
 20
3203.252881
 11
649.826517
 21
3154.889717
  0
LINE
  8
0
  6
HIDDEN
 62
     7
 10
651.076517
 20
3203.252881
 11
651.076517
 21
3154.889717
  0
LINE
  8
0
  6
CONTINUOUS
 62
     7
 10
638.076517
 20
3212.002881
 11
638.076517
 21
3203.252881
  0
LINE
  8
0
  6
CONTINUOUS
 62
     7
 10
638.076517
 20
3212.002881
 11
639.326517
 21
3213.252881
  0
LINE
  8
0
  6
CONTINUOUS
 62
     7
 10
642.326517
 20
3163.252881
 11
641.076517
 21
3164.502881
  0
LINE
  8
0
  6
HIDDEN
 62
     7
 10
646.076517
 20
3152.002881
 11
641.076517
 21
3154.889717
  0
LINE
  8
0
  6
HIDDEN
 62
     7
 10
642.326517
 20
3203.252881
 11
642.326517
 21
3154.889717
  0
LINE
  8
0
  6
HIDDEN
 62
     7
 10
641.076517
 20
3203.252881
 11
641.076517
 21
3154.889717
  0
LINE
  8
0
  6
CENTER
 62
     7
 10
646.076517
 20
3216.499197
 11
646.076517
 21
3149.242076
  0
LINE
  8
0
  6
HIDDEN
 62
     7
 10
641.076517
 20
3154.889717
 11
651.076517
 21
3154.889717
  0
LINE
  8
0
  6
HIDDEN
 62
     7
 10
646.076517
 20
3152.002881
 11
651.076517
 21
3154.889717
  0
LINE
  8
0
  6
HIDDEN
 62
     7
 10
641.076517
 20
3164.502881
 11
651.076517
 21
3164.502881
  0
LINE
  8
0
  6
HIDDEN
 62
     7
 10
642.326517
 20
3163.252881
 11
649.826517
 21
3163.252881
  0
LINE
  8
0
  6
CONTINUOUS
 62
     7
 10
654.076517
 20
3212.002881
 11
654.076517
 21
3203.252881
  0
LINE
  8
0
  6
CONTINUOUS
 62
     7
 10
654.076517
 20
3212.002881
 11
652.826517
 21
3213.252881
  0
LINE
  8
0
  6
CONTINUOUS
 62
     7
 10
598.076517
 20
3203.252881
 11
614.076517
 21
3203.252881
  0
LINE
  8
0
  6
CONTINUOUS
 62
     7
 10
598.076517
 20
3212.002881
 11
614.076517
 21
3212.002881
  0
LINE
  8
0
  6
CONTINUOUS
 62
     7
 10
599.326517
 20
3213.252881
 11
612.826517
 21
3213.252881
  0
LINE
  8
0
  6
CONTINUOUS
 62
     7
 10
609.826517
 20
3163.252881
 11
611.076517
 21
3164.502881
  0
LINE
  8
0
  6
HIDDEN
 62
     7
 10
609.826517
 20
3203.252881
 11
609.826517
 21
3154.889717
  0
LINE
  8
0
  6
HIDDEN
 62
     7
 10
611.076517
 20
3203.252881
 11
611.076517
 21
3154.889717
  0
LINE
  8
0
  6
CONTINUOUS
 62
     7
 10
598.076517
 20
3212.002881
 11
598.076517
 21
3203.252881
  0
LINE
  8
0
  6
CONTINUOUS
 62
     7
 10
598.076517
 20
3212.002881
 11
599.326517
 21
3213.252881
  0
LINE
  8
0
  6
CONTINUOUS
 62
     7
 10
602.326517
 20
3163.252881
 11
601.076517
 21
3164.502881
  0
LINE
  8
0
  6
HIDDEN
 62
     7
 10
606.076517
 20
3152.002881
 11
601.076517
 21
3154.889717
  0
LINE
  8
0
  6
HIDDEN
 62
     7
 10
602.326517
 20
3203.252881
 11
602.326517
 21
3154.889717
  0
LINE
  8
0
  6
HIDDEN
 62
     7
 10
601.076517
 20
3203.252881
 11
601.076517
 21
3154.889717
  0
LINE
  8
0
  6
CENTER
 62
     7
 10
606.076517
 20
3216.499197
 11
606.076517
 21
3149.242076
  0
LINE
  8
0
  6
HIDDEN
 62
     7
 10
601.076517
 20
3154.889717
 11
611.076517
 21
3154.889717
  0
LINE
  8
0
  6
HIDDEN
 62
     7
 10
606.076517
 20
3152.002881
 11
611.076517
 21
3154.889717
  0
LINE
  8
0
  6
HIDDEN
 62
     7
 10
601.076517
 20
3164.502881
 11
611.076517
 21
3164.502881
  0
LINE
  8
0
  6
HIDDEN
 62
     7
 10
602.326517
 20
3163.252881
 11
609.826517
 21
3163.252881
  0
LINE
  8
0
  6
CONTINUOUS
 62
     7
 10
614.076517
 20
3212.002881
 11
614.076517
 21
3203.252881
  0
LINE
  8
0
  6
CONTINUOUS
 62
     7
 10
614.076517
 20
3212.002881
 11
612.826517
 21
3213.252881
  0
LINE
  8
DELTAWINGBRACKET
  6
CONTINUOUS
 62
     1
 10
868.405074
 20
2987.878712
 11
673.030905
 21
3183.252881
  0
CIRCLE
  8
DELTAWINGBRACKET
  6
HIDDEN
 62
     1
 10
740.202315
 20
3055.050122
 40
4.0
  0
CIRCLE
  8
DELTAWINGBRACKET
  6
HIDDEN
 62
     1
 10
740.202315
 20
3055.050122
 40
5.0
  0
CIRCLE
  8
DELTAWINGBRACKET
  6
HIDDEN
 62
     1
 10
676.562705
 20
3118.689732
 40
5.0
  0
CIRCLE
  8
DELTAWINGBRACKET
  6
HIDDEN
 62
     1
 10
676.562705
 20
3118.689732
 40
4.0
  0
CIRCLE
  8
DELTAWINGBRACKET
  6
HIDDEN
 62
     1
 10
803.841925
 20
2991.410512
 40
5.0
  0
CIRCLE
  8
DELTAWINGBRACKET
  6
HIDDEN
 62
     1
 10
803.841925
 20
2991.410512
 40
4.0
  0
CIRCLE
  8
DELTAWINGBRACKET
  6
HIDDEN
 62
     1
 10
722.524645
 20
3037.372452
 40
5.0
  0
CIRCLE
  8
DELTAWINGBRACKET
  6
HIDDEN
 62
     1
 10
722.524645
 20
3037.372452
 40
4.0
  0
CIRCLE
  8
DELTAWINGBRACKET
  6
HIDDEN
 62
     1
 10
786.164256
 20
2973.732842
 40
4.0
  0
CIRCLE
  8
DELTAWINGBRACKET
  6
HIDDEN
 62
     1
 10
786.164256
 20
2973.732842
 40
5.0
  0
CIRCLE
  8
DELTAWINGBRACKET
  6
HIDDEN
 62
     1
 10
658.885035
 20
3101.012063
 40
4.0
  0
CIRCLE
  8
DELTAWINGBRACKET
  6
HIDDEN
 62
     1
 10
658.885035
 20
3101.012063
 40
5.0
  0
CIRCLE
  8
DELTAWINGBRACKET
  6
HIDDEN
 62
     1
 10
757.879985
 20
3072.727791
 40
5.0
  0
CIRCLE
  8
DELTAWINGBRACKET
  6
HIDDEN
 62
     1
 10
757.879985
 20
3072.727791
 40
4.0
  0
CIRCLE
  8
DELTAWINGBRACKET
  6
HIDDEN
 62
     1
 10
821.519595
 20
3009.088181
 40
4.0
  0
CIRCLE
  8
DELTAWINGBRACKET
  6
HIDDEN
 62
     1
 10
821.519595
 20
3009.088181
 40
5.0
  0
CIRCLE
  8
DELTAWINGBRACKET
  6
HIDDEN
 62
     1
 10
694.240374
 20
3136.367402
 40
4.0
  0
CIRCLE
  8
DELTAWINGBRACKET
  6
HIDDEN
 62
     1
 10
694.240374
 20
3136.367402
 40
5.0
  0
LINE
  8
DELTAWINGS
  6
CONTINUOUS
 62
     3
 10
783.225746
 20
2935.438993
 11
844.257095
 21
2996.470342
  0
LINE
  8
DELTAWINGS
  6
CONTINUOUS
 62
     3
 10
628.369361
 20
3105.851727
 11
689.40071
 21
3166.883076
  0
LINE
  8
DELTAWINGS
  6
CONTINUOUS
 62
     3
 10
669.028
 20
3065.193087
 11
730.05935
 21
3126.224436
  0
LINE
  8
DELTAWINGS
  6
CONTINUOUS
 62
     3
 10
750.34528
 20
2983.875807
 11
811.37663
 21
3044.907157
  0
LINE
  8
0
  6
CENTER
 62
     7
 10
853.623655
 20
3005.836902
 11
770.71035
 21
2922.923597
  0
LINE
  8
0
  6
HIDDEN
 62
     7
 10
841.605445
 20
2999.121993
 11
778.849718
 21
2936.366266
  0
LINE
  8
0
  6
HIDDEN
 62
     7
 10
840.721561
 20
3000.005876
 11
777.965834
 21
2937.250149
  0
LINE
  8
0
  6
HIDDEN
 62
     7
 10
846.908745
 20
2993.818692
 11
784.153019
 21
2931.062965
  0
LINE
  8
0
  6
HIDDEN
 62
     7
 10
847.792629
 20
2992.934808
 11
785.036902
 21
2930.179081
  0
LINE
  8
0
  6
HIDDEN
 62
     7
 10
838.600241
 20
3002.127196
 11
849.913949
 21
2990.813488
  0
LINE
  8
0
  6
HIDDEN
 62
     7
 10
844.787425
 20
3008.314381
 11
856.101134
 21
2997.000672
  0
LINE
  8
0
  6
HIDDEN
 62
     7
 10
846.555192
 20
3008.314381
 11
856.101134
 21
2998.768439
  0
LINE
  8
0
  6
HIDDEN
 62
     7
 10
856.101134
 20
2997.000672
 11
856.101134
 21
2998.768439
  0
LINE
  8
0
  6
HIDDEN
 62
     7
 10
857.692124
 20
2998.591662
 11
849.913949
 21
2990.813488
  0
LINE
  8
0
  6
HIDDEN
 62
     7
 10
844.787425
 20
3008.314381
 11
846.555192
 21
3008.314381
  0
LINE
  8
0
  6
HIDDEN
 62
     7
 10
846.378415
 20
3009.905371
 11
838.600241
 21
3002.127196
  0
LINE
  8
0
  6
CONTINUOUS
 62
     7
 10
783.269135
 20
2930.179081
 11
785.036902
 21
2930.179081
  0
LINE
  8
0
  6
CONTINUOUS
 62
     7
 10
777.965834
 20
2935.482382
 11
777.965834
 21
2937.250149
  0
LINE
  8
0
  6
HIDDEN
 62
     7
 10
777.965834
 20
2937.250149
 11
785.036902
 21
2930.179081
  0
LINE
  8
0
  6
HIDDEN
 62
     7
 10
777.965834
 20
2935.482382
 11
783.269135
 21
2930.179081
  0
LINE
  8
0
  6
CONTINUOUS
 62
     7
 10
742.610495
 20
2970.837721
 11
744.378262
 21
2970.837721
  0
LINE
  8
0
  6
HIDDEN
 62
     7
 10
737.307194
 20
2976.141022
 11
742.610495
 21
2970.837721
  0
LINE
  8
0
  6
CONTINUOUS
 62
     7
 10
737.307194
 20
2976.141022
 11
737.307194
 21
2977.908789
  0
LINE
  8
0
  6
HIDDEN
 62
     7
 10
737.307194
 20
2977.908789
 11
744.378262
 21
2970.837721
  0
LINE
  8
0
  6
HIDDEN
 62
     7
 10
800.062921
 20
3040.664516
 11
737.307194
 21
2977.908789
  0
LINE
  8
DELTAWINGS
  6
CONTINUOUS
 62
     3
 10
742.567106
 20
2976.097633
 11
803.598455
 21
3037.128982
  0
LINE
  8
0
  6
CENTER
 62
     7
 10
812.965015
 20
3046.495542
 11
730.05171
 21
2963.582237
  0
LINE
  8
0
  6
HIDDEN
 62
     7
 10
800.946805
 20
3039.780632
 11
738.191078
 21
2977.024906
  0
LINE
  8
0
  6
HIDDEN
 62
     7
 10
806.250105
 20
3034.477332
 11
743.494379
 21
2971.721605
  0
LINE
  8
0
  6
HIDDEN
 62
     7
 10
807.133989
 20
3033.593448
 11
744.378262
 21
2970.837721
  0
LINE
  8
0
  6
HIDDEN
 62
     7
 10
797.941601
 20
3042.785836
 11
809.255309
 21
3031.472128
  0
LINE
  8
0
  6
HIDDEN
 62
     7
 10
804.128785
 20
3048.973021
 11
815.442494
 21
3037.659312
  0
LINE
  8
0
  6
HIDDEN
 62
     7
 10
805.896552
 20
3048.973021
 11
815.442494
 21
3039.427079
  0
LINE
  8
0
  6
HIDDEN
 62
     7
 10
815.442494
 20
3037.659312
 11
815.442494
 21
3039.427079
  0
LINE
  8
0
  6
HIDDEN
 62
     7
 10
817.033484
 20
3039.250302
 11
809.255309
 21
3031.472128
  0
LINE
  8
0
  6
HIDDEN
 62
     7
 10
804.128785
 20
3048.973021
 11
805.896552
 21
3048.973021
  0
LINE
  8
0
  6
HIDDEN
 62
     7
 10
805.719775
 20
3050.564011
 11
797.941601
 21
3042.785836
  0
LINE
  8
0
  6
CONTINUOUS
 62
     7
 10
661.293215
 20
3052.155001
 11
663.060982
 21
3052.155001
  0
LINE
  8
0
  6
HIDDEN
 62
     7
 10
655.989914
 20
3057.458302
 11
661.293215
 21
3052.155001
  0
LINE
  8
0
  6
CONTINUOUS
 62
     7
 10
655.989914
 20
3057.458302
 11
655.989914
 21
3059.226069
  0
LINE
  8
0
  6
HIDDEN
 62
     7
 10
655.989914
 20
3059.226069
 11
663.060982
 21
3052.155001
  0
LINE
  8
0
  6
HIDDEN
 62
     7
 10
615.331275
 20
3099.884709
 11
622.402342
 21
3092.813641
  0
LINE
  8
0
  6
CONTINUOUS
 62
     7
 10
615.331275
 20
3098.116942
 11
615.331275
 21
3099.884709
  0
LINE
  8
0
  6
HIDDEN
 62
     7
 10
615.331275
 20
3098.116942
 11
620.634575
 21
3092.813641
  0
LINE
  8
0
  6
CONTINUOUS
 62
     7
 10
620.634575
 20
3092.813641
 11
622.402342
 21
3092.813641
  0
LINE
  8
0
  6
HIDDEN
 62
     7
 10
685.158069
 20
3155.569368
 11
622.402342
 21
3092.813641
  0
LINE
  8
0
  6
HIDDEN
 62
     7
 10
684.274186
 20
3156.453251
 11
621.518459
 21
3093.697525
  0
LINE
  8
0
  6
HIDDEN
 62
     7
 10
678.970885
 20
3161.756552
 11
616.215158
 21
3099.000825
  0
LINE
  8
0
  6
CENTER
 62
     7
 10
690.989095
 20
3168.471462
 11
608.07579
 21
3085.558156
  0
LINE
  8
DELTAWINGS
  6
CONTINUOUS
 62
     3
 10
620.591186
 20
3098.073552
 11
681.622535
 21
3159.104902
  0
LINE
  8
0
  6
HIDDEN
 62
     7
 10
678.087001
 20
3162.640436
 11
615.331275
 21
3099.884709
  0
LINE
  8
DELTAWINGS
  6
CONTINUOUS
 62
     3
 10
628.369361
 20
3105.851727
 11
689.40071
 21
3166.883076
  0
LINE
  8
0
  6
HIDDEN
 62
     7
 10
718.745641
 20
3121.981796
 11
655.989914
 21
3059.226069
  0
LINE
  8
DELTAWINGS
  6
CONTINUOUS
 62
     3
 10
661.249826
 20
3057.414913
 11
722.281175
 21
3118.446262
  0
LINE
  8
0
  6
CENTER
 62
     7
 10
731.647735
 20
3127.812822
 11
648.73443
 21
3044.899516
  0
LINE
  8
0
  6
HIDDEN
 62
     7
 10
719.629525
 20
3121.097912
 11
656.873798
 21
3058.342185
  0
LINE
  8
0
  6
HIDDEN
 62
     7
 10
724.932826
 20
3115.794611
 11
662.177099
 21
3053.038885
  0
LINE
  8
0
  6
HIDDEN
 62
     7
 10
725.816709
 20
3114.910728
 11
663.060982
 21
3052.155001
  0
LINE
  8
0
  6
HIDDEN
 62
     7
 10
716.624321
 20
3124.103116
 11
727.938029
 21
3112.789408
  0
LINE
  8
0
  6
HIDDEN
 62
     7
 10
722.811505
 20
3130.2903
 11
734.125214
 21
3118.976592
  0
LINE
  8
0
  6
HIDDEN
 62
     7
 10
724.579272
 20
3130.2903
 11
734.125214
 21
3120.744359
  0
LINE
  8
0
  6
HIDDEN
 62
     7
 10
734.125214
 20
3118.976592
 11
734.125214
 21
3120.744359
  0
LINE
  8
0
  6
HIDDEN
 62
     7
 10
735.716204
 20
3120.567582
 11
727.938029
 21
3112.789408
  0
LINE
  8
0
  6
HIDDEN
 62
     7
 10
722.811505
 20
3130.2903
 11
724.579272
 21
3130.2903
  0
LINE
  8
0
  6
HIDDEN
 62
     7
 10
724.402496
 20
3131.881291
 11
716.624321
 21
3124.103116
  0
LINE
  8
0
  6
HIDDEN
 62
     7
 10
683.743856
 20
3172.539931
 11
675.965681
 21
3164.761756
  0
LINE
  8
0
  6
HIDDEN
 62
     7
 10
682.152865
 20
3170.94894
 11
683.920632
 21
3170.94894
  0
LINE
  8
0
  6
HIDDEN
 62
     7
 10
695.057564
 20
3161.226222
 11
687.27939
 21
3153.448048
  0
LINE
  8
0
  6
HIDDEN
 62
     7
 10
693.466574
 20
3159.635232
 11
693.466574
 21
3161.402999
  0
LINE
  8
0
  6
HIDDEN
 62
     7
 10
683.920632
 20
3170.94894
 11
693.466574
 21
3161.402999
  0
LINE
  8
0
  6
HIDDEN
 62
     7
 10
682.152865
 20
3170.94894
 11
693.466574
 21
3159.635232
  0
LINE
  8
0
  6
HIDDEN
 62
     7
 10
675.965681
 20
3164.761756
 11
687.27939
 21
3153.448048
  0
ENDBLK
  8
0
  0
BLOCK
  8
0
  2
DELTA22-G3
 70
     0
 10
0.0
 20
0.0
  0
ARC
  8
RING
  6
CONTINUOUS
 62
     7
 10
1982.478849
 20
2989.179107
 40
25.5
 50
315.0
 51
135.0
  0
ARC
  8
RING
  6
CONTINUOUS
 62
     7
 10
1935.259678
 20
2945.146518
 40
25.5
 50
131.0
 51
311.0
  0
ARC
  8
RING
  6
CONTINUOUS
 62
     7
 10
1328.405075
 20
3643.25288
 40
950.5
 50
311.0
 51
315.0
  0
ARC
  8
RING
  6
CONTINUOUS
 62
     7
 10
1328.405075
 20
3643.25288
 40
899.5
 50
311.0
 51
315.0
  0
LINE
  8
DELTAWINGS
  6
CONTINUOUS
 62
     3
 10
1947.123509
 20
3024.534446
 11
1886.092159
 21
3085.565796
  0
LINE
  8
DELTAWINGBRACKET
  6
CONTINUOUS
 62
     1
 10
1788.405075
 20
2987.878711
 11
1788.405075
 21
2898.924323
  0
LINE
  8
DELTAWINGBRACKET
  6
CONTINUOUS
 62
     1
 10
1983.779244
 20
3183.25288
 11
2072.733632
 21
3183.25288
  0
ARC
  8
DELTAWINGBRACKET
  6
CONTINUOUS
 62
     1
 10
1328.405075
 20
3643.25288
 40
875.0
 50
301.716341
 51
328.283659
  0
LINE
  8
0
  6
CONTINUOUS
 62
     7
 10
2002.733605
 20
3203.25288
 11
2018.733605
 21
3203.25288
  0
LINE
  8
0
  6
CONTINUOUS
 62
     7
 10
2002.733605
 20
3212.00288
 11
2018.733605
 21
3212.00288
  0
LINE
  8
0
  6
CONTINUOUS
 62
     7
 10
2003.983605
 20
3213.25288
 11
2017.483605
 21
3213.25288
  0
LINE
  8
0
  6
CONTINUOUS
 62
     7
 10
2014.483605
 20
3163.25288
 11
2015.733605
 21
3164.50288
  0
LINE
  8
0
  6
HIDDEN
 62
     7
 10
2014.483605
 20
3203.25288
 11
2014.483605
 21
3154.889716
  0
LINE
  8
0
  6
HIDDEN
 62
     7
 10
2015.733605
 20
3203.25288
 11
2015.733605
 21
3154.889716
  0
LINE
  8
0
  6
CONTINUOUS
 62
     7
 10
2002.733605
 20
3212.00288
 11
2002.733605
 21
3203.25288
  0
LINE
  8
0
  6
CONTINUOUS
 62
     7
 10
2002.733605
 20
3212.00288
 11
2003.983605
 21
3213.25288
  0
LINE
  8
0
  6
CONTINUOUS
 62
     7
 10
2006.983605
 20
3163.25288
 11
2005.733605
 21
3164.50288
  0
LINE
  8
0
  6
HIDDEN
 62
     7
 10
2010.733605
 20
3152.00288
 11
2005.733605
 21
3154.889716
  0
LINE
  8
0
  6
HIDDEN
 62
     7
 10
2006.983605
 20
3203.25288
 11
2006.983605
 21
3154.889716
  0
LINE
  8
0
  6
HIDDEN
 62
     7
 10
2005.733605
 20
3203.25288
 11
2005.733605
 21
3154.889716
  0
LINE
  8
0
  6
CENTER
 62
     7
 10
2010.733605
 20
3216.499196
 11
2010.733605
 21
3149.242075
  0
LINE
  8
0
  6
HIDDEN
 62
     7
 10
2005.733605
 20
3154.889716
 11
2015.733605
 21
3154.889716
  0
LINE
  8
0
  6
HIDDEN
 62
     7
 10
2010.733605
 20
3152.00288
 11
2015.733605
 21
3154.889716
  0
LINE
  8
0
  6
HIDDEN
 62
     7
 10
2005.733605
 20
3164.50288
 11
2015.733605
 21
3164.50288
  0
LINE
  8
0
  6
HIDDEN
 62
     7
 10
2006.983605
 20
3163.25288
 11
2014.483605
 21
3163.25288
  0
LINE
  8
0
  6
CONTINUOUS
 62
     7
 10
2018.733605
 20
3212.00288
 11
2018.733605
 21
3203.25288
  0
LINE
  8
0
  6
CONTINUOUS
 62
     7
 10
2018.733605
 20
3212.00288
 11
2017.483605
 21
3213.25288
  0
LINE
  8
0
  6
CONTINUOUS
 62
     7
 10
2042.733632
 20
3203.25288
 11
2058.733632
 21
3203.25288
  0
LINE
  8
0
  6
CONTINUOUS
 62
     7
 10
2042.733632
 20
3212.00288
 11
2058.733632
 21
3212.00288
  0
LINE
  8
0
  6
CONTINUOUS
 62
     7
 10
2043.983632
 20
3213.25288
 11
2057.483632
 21
3213.25288
  0
LINE
  8
0
  6
CONTINUOUS
 62
     7
 10
2054.483632
 20
3163.25288
 11
2055.733632
 21
3164.50288
  0
LINE
  8
0
  6
HIDDEN
 62
     7
 10
2054.483632
 20
3203.25288
 11
2054.483632
 21
3154.889716
  0
LINE
  8
0
  6
HIDDEN
 62
     7
 10
2055.733632
 20
3203.25288
 11
2055.733632
 21
3154.889716
  0
LINE
  8
0
  6
CONTINUOUS
 62
     7
 10
2042.733632
 20
3212.00288
 11
2042.733632
 21
3203.25288
  0
LINE
  8
0
  6
CONTINUOUS
 62
     7
 10
2042.733632
 20
3212.00288
 11
2043.983632
 21
3213.25288
  0
LINE
  8
0
  6
CONTINUOUS
 62
     7
 10
2046.983632
 20
3163.25288
 11
2045.733632
 21
3164.50288
  0
LINE
  8
0
  6
HIDDEN
 62
     7
 10
2050.733632
 20
3152.00288
 11
2045.733632
 21
3154.889716
  0
LINE
  8
0
  6
HIDDEN
 62
     7
 10
2046.983632
 20
3203.25288
 11
2046.983632
 21
3154.889716
  0
LINE
  8
0
  6
HIDDEN
 62
     7
 10
2045.733632
 20
3203.25288
 11
2045.733632
 21
3154.889716
  0
LINE
  8
0
  6
CENTER
 62
     7
 10
2050.733632
 20
3216.499196
 11
2050.733632
 21
3149.242075
  0
LINE
  8
0
  6
HIDDEN
 62
     7
 10
2045.733632
 20
3154.889716
 11
2055.733632
 21
3154.889716
  0
LINE
  8
0
  6
HIDDEN
 62
     7
 10
2050.733632
 20
3152.00288
 11
2055.733632
 21
3154.889716
  0
LINE
  8
0
  6
HIDDEN
 62
     7
 10
2045.733632
 20
3164.50288
 11
2055.733632
 21
3164.50288
  0
LINE
  8
0
  6
HIDDEN
 62
     7
 10
2046.983632
 20
3163.25288
 11
2054.483632
 21
3163.25288
  0
LINE
  8
0
  6
CONTINUOUS
 62
     7
 10
2058.733632
 20
3212.00288
 11
2058.733632
 21
3203.25288
  0
LINE
  8
0
  6
CONTINUOUS
 62
     7
 10
2058.733632
 20
3212.00288
 11
2057.483632
 21
3213.25288
  0
LINE
  8
0
  6
CONTINUOUS
 62
     7
 10
1768.405075
 20
2952.924323
 11
1768.405075
 21
2968.924323
  0
LINE
  8
0
  6
CONTINUOUS
 62
     7
 10
1759.655075
 20
2952.924323
 11
1759.655075
 21
2968.924323
  0
LINE
  8
0
  6
CONTINUOUS
 62
     7
 10
1758.405075
 20
2954.174323
 11
1758.405075
 21
2967.674323
  0
LINE
  8
0
  6
CONTINUOUS
 62
     7
 10
1808.405075
 20
2964.674323
 11
1807.155075
 21
2965.924323
  0
LINE
  8
0
  6
HIDDEN
 62
     7
 10
1768.405075
 20
2964.674323
 11
1816.768239
 21
2964.674323
  0
LINE
  8
0
  6
HIDDEN
 62
     7
 10
1768.405075
 20
2965.924323
 11
1816.768239
 21
2965.924323
  0
LINE
  8
0
  6
CONTINUOUS
 62
     7
 10
1759.655075
 20
2952.924323
 11
1768.405075
 21
2952.924323
  0
LINE
  8
0
  6
CONTINUOUS
 62
     7
 10
1759.655075
 20
2952.924323
 11
1758.405075
 21
2954.174323
  0
LINE
  8
0
  6
CONTINUOUS
 62
     7
 10
1808.405075
 20
2957.174323
 11
1807.155075
 21
2955.924323
  0
LINE
  8
0
  6
HIDDEN
 62
     7
 10
1819.655075
 20
2960.924323
 11
1816.768239
 21
2955.924323
  0
LINE
  8
0
  6
HIDDEN
 62
     7
 10
1768.405075
 20
2957.174323
 11
1816.768239
 21
2957.174323
  0
LINE
  8
0
  6
HIDDEN
 62
     7
 10
1768.405075
 20
2955.924323
 11
1816.768239
 21
2955.924323
  0
LINE
  8
0
  6
CENTER
 62
     7
 10
1755.158759
 20
2960.924323
 11
1822.41588
 21
2960.924323
  0
LINE
  8
0
  6
HIDDEN
 62
     7
 10
1816.768239
 20
2955.924323
 11
1816.768239
 21
2965.924323
  0
LINE
  8
0
  6
HIDDEN
 62
     7
 10
1819.655075
 20
2960.924323
 11
1816.768239
 21
2965.924323
  0
LINE
  8
0
  6
HIDDEN
 62
     7
 10
1807.155075
 20
2955.924323
 11
1807.155075
 21
2965.924323
  0
LINE
  8
0
  6
HIDDEN
 62
     7
 10
1808.405075
 20
2957.174323
 11
1808.405075
 21
2964.674323
  0
LINE
  8
0
  6
CONTINUOUS
 62
     7
 10
1759.655075
 20
2968.924323
 11
1768.405075
 21
2968.924323
  0
LINE
  8
0
  6
CONTINUOUS
 62
     7
 10
1759.655075
 20
2968.924323
 11
1758.405075
 21
2967.674323
  0
LINE
  8
0
  6
CONTINUOUS
 62
     7
 10
1768.405075
 20
2912.924323
 11
1768.405075
 21
2928.924323
  0
LINE
  8
0
  6
CONTINUOUS
 62
     7
 10
1759.655075
 20
2912.924323
 11
1759.655075
 21
2928.924323
  0
LINE
  8
0
  6
CONTINUOUS
 62
     7
 10
1758.405075
 20
2914.174323
 11
1758.405075
 21
2927.674323
  0
LINE
  8
0
  6
CONTINUOUS
 62
     7
 10
1808.405075
 20
2924.674323
 11
1807.155075
 21
2925.924323
  0
LINE
  8
0
  6
HIDDEN
 62
     7
 10
1768.405075
 20
2924.674323
 11
1816.768239
 21
2924.674323
  0
LINE
  8
0
  6
HIDDEN
 62
     7
 10
1768.405075
 20
2925.924323
 11
1816.768239
 21
2925.924323
  0
LINE
  8
0
  6
CONTINUOUS
 62
     7
 10
1759.655075
 20
2912.924323
 11
1768.405075
 21
2912.924323
  0
LINE
  8
0
  6
CONTINUOUS
 62
     7
 10
1759.655075
 20
2912.924323
 11
1758.405075
 21
2914.174323
  0
LINE
  8
0
  6
CONTINUOUS
 62
     7
 10
1808.405075
 20
2917.174323
 11
1807.155075
 21
2915.924323
  0
LINE
  8
0
  6
HIDDEN
 62
     7
 10
1819.655075
 20
2920.924323
 11
1816.768239
 21
2915.924323
  0
LINE
  8
0
  6
HIDDEN
 62
     7
 10
1768.405075
 20
2917.174323
 11
1816.768239
 21
2917.174323
  0
LINE
  8
0
  6
HIDDEN
 62
     7
 10
1768.405075
 20
2915.924323
 11
1816.768239
 21
2915.924323
  0
LINE
  8
0
  6
CENTER
 62
     7
 10
1755.158759
 20
2920.924323
 11
1822.41588
 21
2920.924323
  0
LINE
  8
0
  6
HIDDEN
 62
     7
 10
1816.768239
 20
2915.924323
 11
1816.768239
 21
2925.924323
  0
LINE
  8
0
  6
HIDDEN
 62
     7
 10
1819.655075
 20
2920.924323
 11
1816.768239
 21
2925.924323
  0
LINE
  8
0
  6
HIDDEN
 62
     7
 10
1807.155075
 20
2915.924323
 11
1807.155075
 21
2925.924323
  0
LINE
  8
0
  6
HIDDEN
 62
     7
 10
1808.405075
 20
2917.174323
 11
1808.405075
 21
2924.674323
  0
LINE
  8
0
  6
CONTINUOUS
 62
     7
 10
1759.655075
 20
2928.924323
 11
1768.405075
 21
2928.924323
  0
LINE
  8
0
  6
CONTINUOUS
 62
     7
 10
1759.655075
 20
2928.924323
 11
1758.405075
 21
2927.674323
  0
LINE
  8
DELTAWINGBRACKET
  6
CONTINUOUS
 62
     1
 10
1983.779244
 20
3183.25288
 11
1788.405075
 21
2987.878711
  0
CIRCLE
  8
DELTAWINGBRACKET
  6
HIDDEN
 62
     1
 10
1916.607834
 20
3055.050121
 40
4.0
  0
CIRCLE
  8
DELTAWINGBRACKET
  6
HIDDEN
 62
     1
 10
1916.607834
 20
3055.050121
 40
5.0
  0
CIRCLE
  8
DELTAWINGBRACKET
  6
HIDDEN
 62
     1
 10
1852.968224
 20
2991.410511
 40
5.0
  0
CIRCLE
  8
DELTAWINGBRACKET
  6
HIDDEN
 62
     1
 10
1852.968224
 20
2991.410511
 40
4.0
  0
CIRCLE
  8
DELTAWINGBRACKET
  6
HIDDEN
 62
     1
 10
1980.247444
 20
3118.689731
 40
5.0
  0
CIRCLE
  8
DELTAWINGBRACKET
  6
HIDDEN
 62
     1
 10
1980.247444
 20
3118.689731
 40
4.0
  0
CIRCLE
  8
DELTAWINGBRACKET
  6
HIDDEN
 62
     1
 10
1934.285504
 20
3037.372451
 40
5.0
  0
CIRCLE
  8
DELTAWINGBRACKET
  6
HIDDEN
 62
     1
 10
1934.285504
 20
3037.372451
 40
4.0
  0
CIRCLE
  8
DELTAWINGBRACKET
  6
HIDDEN
 62
     1
 10
1997.925114
 20
3101.012062
 40
4.0
  0
CIRCLE
  8
DELTAWINGBRACKET
  6
HIDDEN
 62
     1
 10
1997.925114
 20
3101.012062
 40
5.0
  0
CIRCLE
  8
DELTAWINGBRACKET
  6
HIDDEN
 62
     1
 10
1870.645893
 20
2973.732841
 40
4.0
  0
CIRCLE
  8
DELTAWINGBRACKET
  6
HIDDEN
 62
     1
 10
1870.645893
 20
2973.732841
 40
5.0
  0
CIRCLE
  8
DELTAWINGBRACKET
  6
HIDDEN
 62
     1
 10
1898.930165
 20
3072.727791
 40
5.0
  0
CIRCLE
  8
DELTAWINGBRACKET
  6
HIDDEN
 62
     1
 10
1898.930165
 20
3072.727791
 40
4.0
  0
CIRCLE
  8
DELTAWINGBRACKET
  6
HIDDEN
 62
     1
 10
1962.569775
 20
3136.367401
 40
4.0
  0
CIRCLE
  8
DELTAWINGBRACKET
  6
HIDDEN
 62
     1
 10
1962.569775
 20
3136.367401
 40
5.0
  0
CIRCLE
  8
DELTAWINGBRACKET
  6
HIDDEN
 62
     1
 10
1835.290554
 20
3009.08818
 40
4.0
  0
CIRCLE
  8
DELTAWINGBRACKET
  6
HIDDEN
 62
     1
 10
1835.290554
 20
3009.08818
 40
5.0
  0
LINE
  8
DELTAWINGS
  6
CONTINUOUS
 62
     3
 10
2036.218963
 20
3098.073552
 11
1975.187614
 21
3159.104901
  0
LINE
  8
DELTAWINGS
  6
CONTINUOUS
 62
     3
 10
1865.806229
 20
2943.217167
 11
1804.77488
 21
3004.248516
  0
LINE
  8
DELTAWINGS
  6
CONTINUOUS
 62
     3
 10
1906.464869
 20
2983.875806
 11
1845.43352
 21
3044.907156
  0
LINE
  8
DELTAWINGS
  6
CONTINUOUS
 62
     3
 10
1987.782149
 20
3065.193086
 11
1926.750799
 21
3126.224436
  0
LINE
  8
0
  6
CENTER
 62
     7
 10
1965.821054
 20
3168.471461
 11
2048.734359
 21
3085.558156
  0
LINE
  8
0
  6
HIDDEN
 62
     7
 10
1972.535963
 20
3156.453251
 11
2035.29169
 21
3093.697524
  0
LINE
  8
0
  6
HIDDEN
 62
     7
 10
1971.65208
 20
3155.569367
 11
2034.407807
 21
3092.81364
  0
LINE
  8
0
  6
HIDDEN
 62
     7
 10
1977.839264
 20
3161.756551
 11
2040.594991
 21
3099.000825
  0
LINE
  8
0
  6
HIDDEN
 62
     7
 10
1978.723148
 20
3162.640435
 11
2041.478875
 21
3099.884708
  0
LINE
  8
0
  6
HIDDEN
 62
     7
 10
1969.53076
 20
3153.448047
 11
1980.844468
 21
3164.761755
  0
LINE
  8
0
  6
HIDDEN
 62
     7
 10
1963.343575
 20
3159.635231
 11
1974.657284
 21
3170.94894
  0
LINE
  8
0
  6
HIDDEN
 62
     7
 10
1963.343575
 20
3161.402998
 11
1972.889517
 21
3170.94894
  0
LINE
  8
0
  6
HIDDEN
 62
     7
 10
1974.657284
 20
3170.94894
 11
1972.889517
 21
3170.94894
  0
LINE
  8
0
  6
HIDDEN
 62
     7
 10
1973.066294
 20
3172.53993
 11
1980.844468
 21
3164.761755
  0
LINE
  8
0
  6
HIDDEN
 62
     7
 10
1963.343575
 20
3159.635231
 11
1963.343575
 21
3161.402998
  0
LINE
  8
0
  6
HIDDEN
 62
     7
 10
1961.752585
 20
3161.226221
 11
1969.53076
 21
3153.448047
  0
LINE
  8
0
  6
CONTINUOUS
 62
     7
 10
2041.478875
 20
3098.116941
 11
2041.478875
 21
3099.884708
  0
LINE
  8
0
  6
CONTINUOUS
 62
     7
 10
2036.175574
 20
3092.81364
 11
2034.407807
 21
3092.81364
  0
LINE
  8
0
  6
HIDDEN
 62
     7
 10
2034.407807
 20
3092.81364
 11
2041.478875
 21
3099.884708
  0
LINE
  8
0
  6
HIDDEN
 62
     7
 10
2036.175574
 20
3092.81364
 11
2041.478875
 21
3098.116941
  0
LINE
  8
0
  6
CONTINUOUS
 62
     7
 10
2000.820235
 20
3057.458301
 11
2000.820235
 21
3059.226068
  0
LINE
  8
0
  6
HIDDEN
 62
     7
 10
1995.516934
 20
3052.155
 11
2000.820235
 21
3057.458301
  0
LINE
  8
0
  6
CONTINUOUS
 62
     7
 10
1995.516934
 20
3052.155
 11
1993.749167
 21
3052.155
  0
LINE
  8
0
  6
HIDDEN
 62
     7
 10
1993.749167
 20
3052.155
 11
2000.820235
 21
3059.226068
  0
LINE
  8
0
  6
HIDDEN
 62
     7
 10
1930.99344
 20
3114.910727
 11
1993.749167
 21
3052.155
  0
LINE
  8
DELTAWINGS
  6
CONTINUOUS
 62
     3
 10
1995.560323
 20
3057.414912
 11
1934.528974
 21
3118.446261
  0
LINE
  8
0
  6
CENTER
 62
     7
 10
1925.162414
 20
3127.812821
 11
2008.075719
 21
3044.899516
  0
LINE
  8
0
  6
HIDDEN
 62
     7
 10
1931.877324
 20
3115.794611
 11
1994.63305
 21
3053.038884
  0
LINE
  8
0
  6
HIDDEN
 62
     7
 10
1937.180624
 20
3121.097911
 11
1999.936351
 21
3058.342185
  0
LINE
  8
0
  6
HIDDEN
 62
     7
 10
1938.064508
 20
3121.981795
 11
2000.820235
 21
3059.226068
  0
LINE
  8
0
  6
HIDDEN
 62
     7
 10
1928.87212
 20
3112.789407
 11
1940.185828
 21
3124.103115
  0
LINE
  8
0
  6
HIDDEN
 62
     7
 10
1922.684935
 20
3118.976591
 11
1933.998644
 21
3130.2903
  0
LINE
  8
0
  6
HIDDEN
 62
     7
 10
1922.684935
 20
3120.744358
 11
1932.230877
 21
3130.2903
  0
LINE
  8
0
  6
HIDDEN
 62
     7
 10
1933.998644
 20
3130.2903
 11
1932.230877
 21
3130.2903
  0
LINE
  8
0
  6
HIDDEN
 62
     7
 10
1932.407654
 20
3131.88129
 11
1940.185828
 21
3124.103115
  0
LINE
  8
0
  6
HIDDEN
 62
     7
 10
1922.684935
 20
3118.976591
 11
1922.684935
 21
3120.744358
  0
LINE
  8
0
  6
HIDDEN
 62
     7
 10
1921.093945
 20
3120.567581
 11
1928.87212
 21
3112.789407
  0
LINE
  8
0
  6
CONTINUOUS
 62
     7
 10
1919.502955
 20
2976.141021
 11
1919.502955
 21
2977.908788
  0
LINE
  8
0
  6
HIDDEN
 62
     7
 10
1914.199654
 20
2970.83772
 11
1919.502955
 21
2976.141021
  0
LINE
  8
0
  6
CONTINUOUS
 62
     7
 10
1914.199654
 20
2970.83772
 11
1912.431887
 21
2970.83772
  0
LINE
  8
0
  6
HIDDEN
 62
     7
 10
1912.431887
 20
2970.83772
 11
1919.502955
 21
2977.908788
  0
LINE
  8
0
  6
HIDDEN
 62
     7
 10
1871.773247
 20
2930.179081
 11
1878.844315
 21
2937.250148
  0
LINE
  8
0
  6
CONTINUOUS
 62
     7
 10
1873.541014
 20
2930.179081
 11
1871.773247
 21
2930.179081
  0
LINE
  8
0
  6
HIDDEN
 62
     7
 10
1873.541014
 20
2930.179081
 11
1878.844315
 21
2935.482381
  0
LINE
  8
0
  6
CONTINUOUS
 62
     7
 10
1878.844315
 20
2935.482381
 11
1878.844315
 21
2937.250148
  0
LINE
  8
0
  6
HIDDEN
 62
     7
 10
1816.088588
 20
3000.005875
 11
1878.844315
 21
2937.250148
  0
LINE
  8
0
  6
HIDDEN
 62
     7
 10
1815.204705
 20
2999.121992
 11
1877.960431
 21
2936.366265
  0
LINE
  8
0
  6
HIDDEN
 62
     7
 10
1809.901404
 20
2993.818691
 11
1872.657131
 21
2931.062964
  0
LINE
  8
0
  6
CENTER
 62
     7
 10
1803.186494
 20
3005.836901
 11
1886.0998
 21
2922.923596
  0
LINE
  8
DELTAWINGS
  6
CONTINUOUS
 62
     3
 10
1873.584404
 20
2935.438992
 11
1812.553054
 21
2996.470341
  0
LINE
  8
0
  6
HIDDEN
 62
     7
 10
1809.01752
 20
2992.934807
 11
1871.773247
 21
2930.179081
  0
LINE
  8
DELTAWINGS
  6
CONTINUOUS
 62
     3
 10
1865.806229
 20
2943.217167
 11
1804.77488
 21
3004.248516
  0
LINE
  8
0
  6
HIDDEN
 62
     7
 10
1849.67616
 20
3033.593447
 11
1912.431887
 21
2970.83772
  0
LINE
  8
DELTAWINGS
  6
CONTINUOUS
 62
     3
 10
1914.243043
 20
2976.097632
 11
1853.211694
 21
3037.128981
  0
LINE
  8
0
  6
CENTER
 62
     7
 10
1843.845134
 20
3046.495541
 11
1926.75844
 21
2963.582236
  0
LINE
  8
0
  6
HIDDEN
 62
     7
 10
1850.560044
 20
3034.477331
 11
1913.315771
 21
2971.721604
  0
LINE
  8
0
  6
HIDDEN
 62
     7
 10
1855.863345
 20
3039.780632
 11
1918.619071
 21
2977.024905
  0
LINE
  8
0
  6
HIDDEN
 62
     7
 10
1856.747228
 20
3040.664515
 11
1919.502955
 21
2977.908788
  0
LINE
  8
0
  6
HIDDEN
 62
     7
 10
1847.55484
 20
3031.472127
 11
1858.868548
 21
3042.785835
  0
LINE
  8
0
  6
HIDDEN
 62
     7
 10
1841.367656
 20
3037.659311
 11
1852.681364
 21
3048.97302
  0
LINE
  8
0
  6
HIDDEN
 62
     7
 10
1841.367656
 20
3039.427078
 11
1850.913597
 21
3048.97302
  0
LINE
  8
0
  6
HIDDEN
 62
     7
 10
1852.681364
 20
3048.97302
 11
1850.913597
 21
3048.97302
  0
LINE
  8
0
  6
HIDDEN
 62
     7
 10
1851.090374
 20
3050.56401
 11
1858.868548
 21
3042.785835
  0
LINE
  8
0
  6
HIDDEN
 62
     7
 10
1841.367656
 20
3037.659311
 11
1841.367656
 21
3039.427078
  0
LINE
  8
0
  6
HIDDEN
 62
     7
 10
1839.776665
 20
3039.250302
 11
1847.55484
 21
3031.472127
  0
LINE
  8
0
  6
HIDDEN
 62
     7
 10
1799.118025
 20
2998.591662
 11
1806.8962
 21
2990.813487
  0
LINE
  8
0
  6
HIDDEN
 62
     7
 10
1800.709016
 20
2997.000671
 11
1800.709016
 21
2998.768438
  0
LINE
  8
0
  6
HIDDEN
 62
     7
 10
1810.431734
 20
3009.90537
 11
1818.209908
 21
3002.127196
  0
LINE
  8
0
  6
HIDDEN
 62
     7
 10
1812.022724
 20
3008.31438
 11
1810.254957
 21
3008.31438
  0
LINE
  8
0
  6
HIDDEN
 62
     7
 10
1800.709016
 20
2998.768438
 11
1810.254957
 21
3008.31438
  0
LINE
  8
0
  6
HIDDEN
 62
     7
 10
1800.709016
 20
2997.000671
 11
1812.022724
 21
3008.31438
  0
LINE
  8
0
  6
HIDDEN
 62
     7
 10
1806.8962
 20
2990.813487
 11
1818.209908
 21
3002.127196
  0
ENDBLK
  8
0
  0
BLOCK
  8
0
  2
DELTA22-G4
 70
     0
 10
0.0
 20
0.0
  0
ARC
  8
RING
  6
CONTINUOUS
 62
     7
 10
1982.478849
 20
4297.326655
 40
25.5
 50
45.0
 51
225.0
  0
ARC
  8
RING
  6
CONTINUOUS
 62
     7
 10
2026.511438
 20
4250.107484
 40
25.5
 50
221.0
 51
41.0
  0
ARC
  8
RING
  6
CONTINUOUS
 62
     7
 10
1328.405076
 20
3643.252881
 40
950.5
 50
41.0
 51
45.0
  0
ARC
  8
RING
  6
CONTINUOUS
 62
     7
 10
1328.405076
 20
3643.252881
 40
899.5
 50
41.0
 51
45.0
  0
LINE
  8
DELTAWINGS
  6
CONTINUOUS
 62
     3
 10
1947.12351
 20
4261.971315
 11
1886.09216
 21
4200.939965
  0
LINE
  8
DELTAWINGBRACKET
  6
CONTINUOUS
 62
     1
 10
1983.779245
 20
4103.252881
 11
2072.733633
 21
4103.252881
  0
LINE
  8
DELTAWINGBRACKET
  6
CONTINUOUS
 62
     1
 10
1788.405076
 20
4298.62705
 11
1788.405076
 21
4387.581438
  0
ARC
  8
DELTAWINGBRACKET
  6
CONTINUOUS
 62
     1
 10
1328.405076
 20
3643.252881
 40
875.0
 50
31.716341
 51
58.283659
  0
LINE
  8
0
  6
CONTINUOUS
 62
     7
 10
1768.405076
 20
4317.581411
 11
1768.405076
 21
4333.581411
  0
LINE
  8
0
  6
CONTINUOUS
 62
     7
 10
1759.655076
 20
4317.581411
 11
1759.655076
 21
4333.581411
  0
LINE
  8
0
  6
CONTINUOUS
 62
     7
 10
1758.405076
 20
4318.831411
 11
1758.405076
 21
4332.331411
  0
LINE
  8
0
  6
CONTINUOUS
 62
     7
 10
1808.405076
 20
4329.331411
 11
1807.155076
 21
4330.581411
  0
LINE
  8
0
  6
HIDDEN
 62
     7
 10
1768.405076
 20
4329.331411
 11
1816.76824
 21
4329.331411
  0
LINE
  8
0
  6
HIDDEN
 62
     7
 10
1768.405076
 20
4330.581411
 11
1816.76824
 21
4330.581411
  0
LINE
  8
0
  6
CONTINUOUS
 62
     7
 10
1759.655076
 20
4317.581411
 11
1768.405076
 21
4317.581411
  0
LINE
  8
0
  6
CONTINUOUS
 62
     7
 10
1759.655076
 20
4317.581411
 11
1758.405076
 21
4318.831411
  0
LINE
  8
0
  6
CONTINUOUS
 62
     7
 10
1808.405076
 20
4321.831411
 11
1807.155076
 21
4320.581411
  0
LINE
  8
0
  6
HIDDEN
 62
     7
 10
1819.655076
 20
4325.581411
 11
1816.76824
 21
4320.581411
  0
LINE
  8
0
  6
HIDDEN
 62
     7
 10
1768.405076
 20
4321.831411
 11
1816.76824
 21
4321.831411
  0
LINE
  8
0
  6
HIDDEN
 62
     7
 10
1768.405076
 20
4320.581411
 11
1816.76824
 21
4320.581411
  0
LINE
  8
0
  6
CENTER
 62
     7
 10
1755.15876
 20
4325.581411
 11
1822.415881
 21
4325.581411
  0
LINE
  8
0
  6
HIDDEN
 62
     7
 10
1816.76824
 20
4320.581411
 11
1816.76824
 21
4330.581411
  0
LINE
  8
0
  6
HIDDEN
 62
     7
 10
1819.655076
 20
4325.581411
 11
1816.76824
 21
4330.581411
  0
LINE
  8
0
  6
HIDDEN
 62
     7
 10
1807.155076
 20
4320.581411
 11
1807.155076
 21
4330.581411
  0
LINE
  8
0
  6
HIDDEN
 62
     7
 10
1808.405076
 20
4321.831411
 11
1808.405076
 21
4329.331411
  0
LINE
  8
0
  6
CONTINUOUS
 62
     7
 10
1759.655076
 20
4333.581411
 11
1768.405076
 21
4333.581411
  0
LINE
  8
0
  6
CONTINUOUS
 62
     7
 10
1759.655076
 20
4333.581411
 11
1758.405076
 21
4332.331411
  0
LINE
  8
0
  6
CONTINUOUS
 62
     7
 10
1768.405076
 20
4357.581438
 11
1768.405076
 21
4373.581438
  0
LINE
  8
0
  6
CONTINUOUS
 62
     7
 10
1759.655076
 20
4357.581438
 11
1759.655076
 21
4373.581438
  0
LINE
  8
0
  6
CONTINUOUS
 62
     7
 10
1758.405076
 20
4358.831438
 11
1758.405076
 21
4372.331438
  0
LINE
  8
0
  6
CONTINUOUS
 62
     7
 10
1808.405076
 20
4369.331438
 11
1807.155076
 21
4370.581438
  0
LINE
  8
0
  6
HIDDEN
 62
     7
 10
1768.405076
 20
4369.331438
 11
1816.76824
 21
4369.331438
  0
LINE
  8
0
  6
HIDDEN
 62
     7
 10
1768.405076
 20
4370.581438
 11
1816.76824
 21
4370.581438
  0
LINE
  8
0
  6
CONTINUOUS
 62
     7
 10
1759.655076
 20
4357.581438
 11
1768.405076
 21
4357.581438
  0
LINE
  8
0
  6
CONTINUOUS
 62
     7
 10
1759.655076
 20
4357.581438
 11
1758.405076
 21
4358.831438
  0
LINE
  8
0
  6
CONTINUOUS
 62
     7
 10
1808.405076
 20
4361.831438
 11
1807.155076
 21
4360.581438
  0
LINE
  8
0
  6
HIDDEN
 62
     7
 10
1819.655076
 20
4365.581438
 11
1816.76824
 21
4360.581438
  0
LINE
  8
0
  6
HIDDEN
 62
     7
 10
1768.405076
 20
4361.831438
 11
1816.76824
 21
4361.831438
  0
LINE
  8
0
  6
HIDDEN
 62
     7
 10
1768.405076
 20
4360.581438
 11
1816.76824
 21
4360.581438
  0
LINE
  8
0
  6
CENTER
 62
     7
 10
1755.15876
 20
4365.581438
 11
1822.415881
 21
4365.581438
  0
LINE
  8
0
  6
HIDDEN
 62
     7
 10
1816.76824
 20
4360.581438
 11
1816.76824
 21
4370.581438
  0
LINE
  8
0
  6
HIDDEN
 62
     7
 10
1819.655076
 20
4365.581438
 11
1816.76824
 21
4370.581438
  0
LINE
  8
0
  6
HIDDEN
 62
     7
 10
1807.155076
 20
4360.581438
 11
1807.155076
 21
4370.581438
  0
LINE
  8
0
  6
HIDDEN
 62
     7
 10
1808.405076
 20
4361.831438
 11
1808.405076
 21
4369.331438
  0
LINE
  8
0
  6
CONTINUOUS
 62
     7
 10
1759.655076
 20
4373.581438
 11
1768.405076
 21
4373.581438
  0
LINE
  8
0
  6
CONTINUOUS
 62
     7
 10
1759.655076
 20
4373.581438
 11
1758.405076
 21
4372.331438
  0
LINE
  8
0
  6
CONTINUOUS
 62
     7
 10
2018.733633
 20
4083.252881
 11
2002.733633
 21
4083.252881
  0
LINE
  8
0
  6
CONTINUOUS
 62
     7
 10
2018.733633
 20
4074.502881
 11
2002.733633
 21
4074.502881
  0
LINE
  8
0
  6
CONTINUOUS
 62
     7
 10
2017.483633
 20
4073.252881
 11
2003.983633
 21
4073.252881
  0
LINE
  8
0
  6
CONTINUOUS
 62
     7
 10
2006.983633
 20
4123.252881
 11
2005.733633
 21
4122.002881
  0
LINE
  8
0
  6
HIDDEN
 62
     7
 10
2006.983633
 20
4083.252881
 11
2006.983633
 21
4131.616045
  0
LINE
  8
0
  6
HIDDEN
 62
     7
 10
2005.733633
 20
4083.252881
 11
2005.733633
 21
4131.616045
  0
LINE
  8
0
  6
CONTINUOUS
 62
     7
 10
2018.733633
 20
4074.502881
 11
2018.733633
 21
4083.252881
  0
LINE
  8
0
  6
CONTINUOUS
 62
     7
 10
2018.733633
 20
4074.502881
 11
2017.483633
 21
4073.252881
  0
LINE
  8
0
  6
CONTINUOUS
 62
     7
 10
2014.483633
 20
4123.252881
 11
2015.733633
 21
4122.002881
  0
LINE
  8
0
  6
HIDDEN
 62
     7
 10
2010.733633
 20
4134.502881
 11
2015.733633
 21
4131.616045
  0
LINE
  8
0
  6
HIDDEN
 62
     7
 10
2014.483633
 20
4083.252881
 11
2014.483633
 21
4131.616045
  0
LINE
  8
0
  6
HIDDEN
 62
     7
 10
2015.733633
 20
4083.252881
 11
2015.733633
 21
4131.616045
  0
LINE
  8
0
  6
CENTER
 62
     7
 10
2010.733633
 20
4070.006565
 11
2010.733633
 21
4137.263686
  0
LINE
  8
0
  6
HIDDEN
 62
     7
 10
2015.733633
 20
4131.616045
 11
2005.733633
 21
4131.616045
  0
LINE
  8
0
  6
HIDDEN
 62
     7
 10
2010.733633
 20
4134.502881
 11
2005.733633
 21
4131.616045
  0
LINE
  8
0
  6
HIDDEN
 62
     7
 10
2015.733633
 20
4122.002881
 11
2005.733633
 21
4122.002881
  0
LINE
  8
0
  6
HIDDEN
 62
     7
 10
2014.483633
 20
4123.252881
 11
2006.983633
 21
4123.252881
  0
LINE
  8
0
  6
CONTINUOUS
 62
     7
 10
2002.733633
 20
4074.502881
 11
2002.733633
 21
4083.252881
  0
LINE
  8
0
  6
CONTINUOUS
 62
     7
 10
2002.733633
 20
4074.502881
 11
2003.983633
 21
4073.252881
  0
LINE
  8
0
  6
CONTINUOUS
 62
     7
 10
2058.733633
 20
4083.252881
 11
2042.733633
 21
4083.252881
  0
LINE
  8
0
  6
CONTINUOUS
 62
     7
 10
2058.733633
 20
4074.502881
 11
2042.733633
 21
4074.502881
  0
LINE
  8
0
  6
CONTINUOUS
 62
     7
 10
2057.483633
 20
4073.252881
 11
2043.983633
 21
4073.252881
  0
LINE
  8
0
  6
CONTINUOUS
 62
     7
 10
2046.983633
 20
4123.252881
 11
2045.733633
 21
4122.002881
  0
LINE
  8
0
  6
HIDDEN
 62
     7
 10
2046.983633
 20
4083.252881
 11
2046.983633
 21
4131.616045
  0
LINE
  8
0
  6
HIDDEN
 62
     7
 10
2045.733633
 20
4083.252881
 11
2045.733633
 21
4131.616045
  0
LINE
  8
0
  6
CONTINUOUS
 62
     7
 10
2058.733633
 20
4074.502881
 11
2058.733633
 21
4083.252881
  0
LINE
  8
0
  6
CONTINUOUS
 62
     7
 10
2058.733633
 20
4074.502881
 11
2057.483633
 21
4073.252881
  0
LINE
  8
0
  6
CONTINUOUS
 62
     7
 10
2054.483633
 20
4123.252881
 11
2055.733633
 21
4122.002881
  0
LINE
  8
0
  6
HIDDEN
 62
     7
 10
2050.733633
 20
4134.502881
 11
2055.733633
 21
4131.616045
  0
LINE
  8
0
  6
HIDDEN
 62
     7
 10
2054.483633
 20
4083.252881
 11
2054.483633
 21
4131.616045
  0
LINE
  8
0
  6
HIDDEN
 62
     7
 10
2055.733633
 20
4083.252881
 11
2055.733633
 21
4131.616045
  0
LINE
  8
0
  6
CENTER
 62
     7
 10
2050.733633
 20
4070.006565
 11
2050.733633
 21
4137.263686
  0
LINE
  8
0
  6
HIDDEN
 62
     7
 10
2055.733633
 20
4131.616045
 11
2045.733633
 21
4131.616045
  0
LINE
  8
0
  6
HIDDEN
 62
     7
 10
2050.733633
 20
4134.502881
 11
2045.733633
 21
4131.616045
  0
LINE
  8
0
  6
HIDDEN
 62
     7
 10
2055.733633
 20
4122.002881
 11
2045.733633
 21
4122.002881
  0
LINE
  8
0
  6
HIDDEN
 62
     7
 10
2054.483633
 20
4123.252881
 11
2046.983633
 21
4123.252881
  0
LINE
  8
0
  6
CONTINUOUS
 62
     7
 10
2042.733633
 20
4074.502881
 11
2042.733633
 21
4083.252881
  0
LINE
  8
0
  6
CONTINUOUS
 62
     7
 10
2042.733633
 20
4074.502881
 11
2043.983633
 21
4073.252881
  0
LINE
  8
DELTAWINGBRACKET
  6
CONTINUOUS
 62
     1
 10
1788.405076
 20
4298.62705
 11
1983.779245
 21
4103.252881
  0
CIRCLE
  8
DELTAWINGBRACKET
  6
HIDDEN
 62
     1
 10
1916.607835
 20
4231.45564
 40
4.0
  0
CIRCLE
  8
DELTAWINGBRACKET
  6
HIDDEN
 62
     1
 10
1916.607835
 20
4231.45564
 40
5.0
  0
CIRCLE
  8
DELTAWINGBRACKET
  6
HIDDEN
 62
     1
 10
1980.247445
 20
4167.81603
 40
5.0
  0
CIRCLE
  8
DELTAWINGBRACKET
  6
HIDDEN
 62
     1
 10
1980.247445
 20
4167.81603
 40
4.0
  0
CIRCLE
  8
DELTAWINGBRACKET
  6
HIDDEN
 62
     1
 10
1852.968225
 20
4295.09525
 40
5.0
  0
CIRCLE
  8
DELTAWINGBRACKET
  6
HIDDEN
 62
     1
 10
1852.968225
 20
4295.09525
 40
4.0
  0
CIRCLE
  8
DELTAWINGBRACKET
  6
HIDDEN
 62
     1
 10
1934.285505
 20
4249.13331
 40
5.0
  0
CIRCLE
  8
DELTAWINGBRACKET
  6
HIDDEN
 62
     1
 10
1934.285505
 20
4249.13331
 40
4.0
  0
CIRCLE
  8
DELTAWINGBRACKET
  6
HIDDEN
 62
     1
 10
1870.645894
 20
4312.77292
 40
4.0
  0
CIRCLE
  8
DELTAWINGBRACKET
  6
HIDDEN
 62
     1
 10
1870.645894
 20
4312.77292
 40
5.0
  0
CIRCLE
  8
DELTAWINGBRACKET
  6
HIDDEN
 62
     1
 10
1997.925115
 20
4185.493699
 40
4.0
  0
CIRCLE
  8
DELTAWINGBRACKET
  6
HIDDEN
 62
     1
 10
1997.925115
 20
4185.493699
 40
5.0
  0
CIRCLE
  8
DELTAWINGBRACKET
  6
HIDDEN
 62
     1
 10
1898.930165
 20
4213.777971
 40
5.0
  0
CIRCLE
  8
DELTAWINGBRACKET
  6
HIDDEN
 62
     1
 10
1898.930165
 20
4213.777971
 40
4.0
  0
CIRCLE
  8
DELTAWINGBRACKET
  6
HIDDEN
 62
     1
 10
1835.290555
 20
4277.417581
 40
4.0
  0
CIRCLE
  8
DELTAWINGBRACKET
  6
HIDDEN
 62
     1
 10
1835.290555
 20
4277.417581
 40
5.0
  0
CIRCLE
  8
DELTAWINGBRACKET
  6
HIDDEN
 62
     1
 10
1962.569776
 20
4150.13836
 40
4.0
  0
CIRCLE
  8
DELTAWINGBRACKET
  6
HIDDEN
 62
     1
 10
1962.569776
 20
4150.13836
 40
5.0
  0
LINE
  8
DELTAWINGS
  6
CONTINUOUS
 62
     3
 10
1873.584404
 20
4351.066769
 11
1812.553055
 21
4290.03542
  0
LINE
  8
DELTAWINGS
  6
CONTINUOUS
 62
     3
 10
2028.440789
 20
4180.654035
 11
1967.40944
 21
4119.622686
  0
LINE
  8
DELTAWINGS
  6
CONTINUOUS
 62
     3
 10
1987.78215
 20
4221.312675
 11
1926.7508
 21
4160.281326
  0
LINE
  8
DELTAWINGS
  6
CONTINUOUS
 62
     3
 10
1906.46487
 20
4302.629955
 11
1845.43352
 21
4241.598605
  0
LINE
  8
0
  6
CENTER
 62
     7
 10
1803.186495
 20
4280.66886
 11
1886.0998
 21
4363.582165
  0
LINE
  8
0
  6
HIDDEN
 62
     7
 10
1815.204705
 20
4287.383769
 11
1877.960432
 21
4350.139496
  0
LINE
  8
0
  6
HIDDEN
 62
     7
 10
1816.088589
 20
4286.499886
 11
1878.844316
 21
4349.255613
  0
LINE
  8
0
  6
HIDDEN
 62
     7
 10
1809.901405
 20
4292.68707
 11
1872.657131
 21
4355.442797
  0
LINE
  8
0
  6
HIDDEN
 62
     7
 10
1809.017521
 20
4293.570954
 11
1871.773248
 21
4356.326681
  0
LINE
  8
0
  6
HIDDEN
 62
     7
 10
1818.209909
 20
4284.378566
 11
1806.896201
 21
4295.692274
  0
LINE
  8
0
  6
HIDDEN
 62
     7
 10
1812.022725
 20
4278.191381
 11
1800.709016
 21
4289.50509
  0
LINE
  8
0
  6
HIDDEN
 62
     7
 10
1810.254958
 20
4278.191381
 11
1800.709016
 21
4287.737323
  0
LINE
  8
0
  6
HIDDEN
 62
     7
 10
1800.709016
 20
4289.50509
 11
1800.709016
 21
4287.737323
  0
LINE
  8
0
  6
HIDDEN
 62
     7
 10
1799.118026
 20
4287.9141
 11
1806.896201
 21
4295.692274
  0
LINE
  8
0
  6
HIDDEN
 62
     7
 10
1812.022725
 20
4278.191381
 11
1810.254958
 21
4278.191381
  0
LINE
  8
0
  6
HIDDEN
 62
     7
 10
1810.431735
 20
4276.600391
 11
1818.209909
 21
4284.378566
  0
LINE
  8
0
  6
CONTINUOUS
 62
     7
 10
1873.541015
 20
4356.326681
 11
1871.773248
 21
4356.326681
  0
LINE
  8
0
  6
CONTINUOUS
 62
     7
 10
1878.844316
 20
4351.02338
 11
1878.844316
 21
4349.255613
  0
LINE
  8
0
  6
HIDDEN
 62
     7
 10
1878.844316
 20
4349.255613
 11
1871.773248
 21
4356.326681
  0
LINE
  8
0
  6
HIDDEN
 62
     7
 10
1878.844316
 20
4351.02338
 11
1873.541015
 21
4356.326681
  0
LINE
  8
0
  6
CONTINUOUS
 62
     7
 10
1914.199655
 20
4315.668041
 11
1912.431888
 21
4315.668041
  0
LINE
  8
0
  6
HIDDEN
 62
     7
 10
1919.502956
 20
4310.36474
 11
1914.199655
 21
4315.668041
  0
LINE
  8
0
  6
CONTINUOUS
 62
     7
 10
1919.502956
 20
4310.36474
 11
1919.502956
 21
4308.596973
  0
LINE
  8
0
  6
HIDDEN
 62
     7
 10
1919.502956
 20
4308.596973
 11
1912.431888
 21
4315.668041
  0
LINE
  8
0
  6
HIDDEN
 62
     7
 10
1856.747229
 20
4245.841246
 11
1919.502956
 21
4308.596973
  0
LINE
  8
DELTAWINGS
  6
CONTINUOUS
 62
     3
 10
1914.243044
 20
4310.408129
 11
1853.211695
 21
4249.37678
  0
LINE
  8
0
  6
CENTER
 62
     7
 10
1843.845135
 20
4240.01022
 11
1926.75844
 21
4322.923525
  0
LINE
  8
0
  6
HIDDEN
 62
     7
 10
1855.863345
 20
4246.72513
 11
1918.619072
 21
4309.480856
  0
LINE
  8
0
  6
HIDDEN
 62
     7
 10
1850.560045
 20
4252.02843
 11
1913.315771
 21
4314.784157
  0
LINE
  8
0
  6
HIDDEN
 62
     7
 10
1849.676161
 20
4252.912314
 11
1912.431888
 21
4315.668041
  0
LINE
  8
0
  6
HIDDEN
 62
     7
 10
1858.868549
 20
4243.719926
 11
1847.554841
 21
4255.033634
  0
LINE
  8
0
  6
HIDDEN
 62
     7
 10
1852.681365
 20
4237.532741
 11
1841.367656
 21
4248.84645
  0
LINE
  8
0
  6
HIDDEN
 62
     7
 10
1850.913598
 20
4237.532741
 11
1841.367656
 21
4247.078683
  0
LINE
  8
0
  6
HIDDEN
 62
     7
 10
1841.367656
 20
4248.84645
 11
1841.367656
 21
4247.078683
  0
LINE
  8
0
  6
HIDDEN
 62
     7
 10
1839.776666
 20
4247.25546
 11
1847.554841
 21
4255.033634
  0
LINE
  8
0
  6
HIDDEN
 62
     7
 10
1852.681365
 20
4237.532741
 11
1850.913598
 21
4237.532741
  0
LINE
  8
0
  6
HIDDEN
 62
     7
 10
1851.090375
 20
4235.941751
 11
1858.868549
 21
4243.719926
  0
LINE
  8
0
  6
CONTINUOUS
 62
     7
 10
1995.516935
 20
4234.350761
 11
1993.749168
 21
4234.350761
  0
LINE
  8
0
  6
HIDDEN
 62
     7
 10
2000.820236
 20
4229.04746
 11
1995.516935
 21
4234.350761
  0
LINE
  8
0
  6
CONTINUOUS
 62
     7
 10
2000.820236
 20
4229.04746
 11
2000.820236
 21
4227.279693
  0
LINE
  8
0
  6
HIDDEN
 62
     7
 10
2000.820236
 20
4227.279693
 11
1993.749168
 21
4234.350761
  0
LINE
  8
0
  6
HIDDEN
 62
     7
 10
2041.478875
 20
4186.621053
 11
2034.407808
 21
4193.692121
  0
LINE
  8
0
  6
CONTINUOUS
 62
     7
 10
2041.478875
 20
4188.38882
 11
2041.478875
 21
4186.621053
  0
LINE
  8
0
  6
HIDDEN
 62
     7
 10
2041.478875
 20
4188.38882
 11
2036.175575
 21
4193.692121
  0
LINE
  8
0
  6
CONTINUOUS
 62
     7
 10
2036.175575
 20
4193.692121
 11
2034.407808
 21
4193.692121
  0
LINE
  8
0
  6
HIDDEN
 62
     7
 10
1971.652081
 20
4130.936394
 11
2034.407808
 21
4193.692121
  0
LINE
  8
0
  6
HIDDEN
 62
     7
 10
1972.535964
 20
4130.052511
 11
2035.291691
 21
4192.808237
  0
LINE
  8
0
  6
HIDDEN
 62
     7
 10
1977.839265
 20
4124.74921
 11
2040.594992
 21
4187.504937
  0
LINE
  8
0
  6
CENTER
 62
     7
 10
1965.821055
 20
4118.0343
 11
2048.73436
 21
4200.947606
  0
LINE
  8
DELTAWINGS
  6
CONTINUOUS
 62
     3
 10
2036.218964
 20
4188.43221
 11
1975.187615
 21
4127.40086
  0
LINE
  8
0
  6
HIDDEN
 62
     7
 10
1978.723149
 20
4123.865326
 11
2041.478875
 21
4186.621053
  0
LINE
  8
DELTAWINGS
  6
CONTINUOUS
 62
     3
 10
2028.440789
 20
4180.654035
 11
1967.40944
 21
4119.622686
  0
LINE
  8
0
  6
HIDDEN
 62
     7
 10
1938.064509
 20
4164.523966
 11
2000.820236
 21
4227.279693
  0
LINE
  8
DELTAWINGS
  6
CONTINUOUS
 62
     3
 10
1995.560324
 20
4229.090849
 11
1934.528975
 21
4168.0595
  0
LINE
  8
0
  6
CENTER
 62
     7
 10
1925.162415
 20
4158.69294
 11
2008.07572
 21
4241.606246
  0
LINE
  8
0
  6
HIDDEN
 62
     7
 10
1937.180625
 20
4165.40785
 11
1999.936352
 21
4228.163577
  0
LINE
  8
0
  6
HIDDEN
 62
     7
 10
1931.877324
 20
4170.711151
 11
1994.633051
 21
4233.466877
  0
LINE
  8
0
  6
HIDDEN
 62
     7
 10
1930.993441
 20
4171.595034
 11
1993.749168
 21
4234.350761
  0
LINE
  8
0
  6
HIDDEN
 62
     7
 10
1940.185829
 20
4162.402646
 11
1928.872121
 21
4173.716354
  0
LINE
  8
0
  6
HIDDEN
 62
     7
 10
1933.998645
 20
4156.215462
 11
1922.684936
 21
4167.52917
  0
LINE
  8
0
  6
HIDDEN
 62
     7
 10
1932.230878
 20
4156.215462
 11
1922.684936
 21
4165.761403
  0
LINE
  8
0
  6
HIDDEN
 62
     7
 10
1922.684936
 20
4167.52917
 11
1922.684936
 21
4165.761403
  0
LINE
  8
0
  6
HIDDEN
 62
     7
 10
1921.093946
 20
4165.93818
 11
1928.872121
 21
4173.716354
  0
LINE
  8
0
  6
HIDDEN
 62
     7
 10
1933.998645
 20
4156.215462
 11
1932.230878
 21
4156.215462
  0
LINE
  8
0
  6
HIDDEN
 62
     7
 10
1932.407654
 20
4154.624471
 11
1940.185829
 21
4162.402646
  0
LINE
  8
0
  6
HIDDEN
 62
     7
 10
1973.066294
 20
4113.965831
 11
1980.844469
 21
4121.744006
  0
LINE
  8
0
  6
HIDDEN
 62
     7
 10
1974.657285
 20
4115.556822
 11
1972.889518
 21
4115.556822
  0
LINE
  8
0
  6
HIDDEN
 62
     7
 10
1961.752586
 20
4125.27954
 11
1969.53076
 21
4133.057714
  0
LINE
  8
0
  6
HIDDEN
 62
     7
 10
1963.343576
 20
4126.87053
 11
1963.343576
 21
4125.102763
  0
LINE
  8
0
  6
HIDDEN
 62
     7
 10
1972.889518
 20
4115.556822
 11
1963.343576
 21
4125.102763
  0
LINE
  8
0
  6
HIDDEN
 62
     7
 10
1974.657285
 20
4115.556822
 11
1963.343576
 21
4126.87053
  0
LINE
  8
0
  6
HIDDEN
 62
     7
 10
1980.844469
 20
4121.744006
 11
1969.53076
 21
4133.057714
  0
ENDBLK
  8
0
  0
ENDSEC
  0
SECTION
  2
ENTITIES
  0
LINE
  8
0
  6
CONTINUOUS
 62
     3
 10
1788.405075
 20
1861.066358
 11
1788.405075
 21
1737.527876
  0
LINE
  8
0
  6
CONTINUOUS
 62
     3
 10
1768.405075
 20
1861.066358
 11
1768.405075
 21
1711.066358
  0
LINE
  8
LAYER01
  6
CONTINUOUS
 62
     3
 10
1788.405075
 20
1318.96614
 11
1788.405075
 21
2113.71614
  0
LINE
  8
LAYER01
  6
CONTINUOUS
 62
     3
 10
1768.405075
 20
1318.96614
 11
1768.405075
 21
2113.71614
  0
LINE
  8
2-3BODY
  6
CONTINUOUS
 62
     7
 10
898.405075
 20
1276.21114
 11
1758.405075
 21
1276.21114
  0
LINE
  8
DEWARASSY
  6
CONTINUOUS
 62
     7
 10
1758.405075
 20
1564.96614
 11
1758.405075
 21
1276.21614
  0
LINE
  8
DELTAWINGS
  6
CONTINUOUS
 62
     3
 10
1788.405075
 20
1318.96614
 11
1768.405075
 21
1318.96614
  0
LINE
  8
DEWARASSY
  6
CONTINUOUS
 62
     7
 10
1758.405075
 20
1697.835599
 11
1758.405075
 21
1564.96614
  0
LINE
  8
RING
  6
HIDDEN
 62
     7
 10
2203.405075
 20
2158.71614
 11
453.405075
 21
2158.71614
  0
LINE
  8
RING
  6
CONTINUOUS
 62
     7
 10
453.405075
 20
2113.71614
 11
2203.405075
 21
2113.71614
  0
LINE
  8
RING
  6
CONTINUOUS
 62
     7
 10
2203.405075
 20
2188.71614
 11
453.405075
 21
2188.71614
  0
LINE
  8
RING
  6
CONTINUOUS
 62
     7
 10
2203.405075
 20
2113.71614
 11
2203.405075
 21
2188.71614
  0
LINE
  8
RING
  6
CONTINUOUS
 62
     7
 10
2303.405075
 20
2113.71614
 11
2303.405075
 21
2188.71614
  0
LINE
  8
RING
  6
CONTINUOUS
 62
     7
 10
2221.405075
 20
2113.71614
 11
2221.405075
 21
2158.71614
  0
LINE
  8
RING
  6
CONTINUOUS
 62
     7
 10
2285.405075
 20
2113.71614
 11
2285.405075
 21
2158.71614
  0
LINE
  8
0
  6
HIDDEN
 62
     3
 10
1768.405075
 20
1854.436358
 11
1788.405075
 21
1854.436358
  0
LINE
  8
0
  6
HIDDEN
 62
     3
 10
1768.405075
 20
1861.066358
 11
1788.405075
 21
1861.066358
  0
LINE
  8
RING
  6
CONTINUOUS
 62
     7
 10
2303.405075
 20
2113.71614
 11
2285.405075
 21
2113.71614
  0
LINE
  8
RING
  6
CONTINUOUS
 62
     7
 10
2221.405075
 20
2113.71614
 11
2203.405075
 21
2113.71614
  0
LINE
  8
RING
  6
CONTINUOUS
 62
     7
 10
2221.405075
 20
2113.71614
 11
2285.405075
 21
2113.71614
  0
LINE
  8
RING
  6
CONTINUOUS
 62
     7
 10
2303.405075
 20
2188.71614
 11
2266.405075
 21
2188.71614
  0
LINE
  8
RING
  6
CONTINUOUS
 62
     7
 10
2285.405075
 20
2158.71614
 11
2266.405075
 21
2158.71614
  0
LINE
  8
DEWARASSY
  6
CONTINUOUS
 62
     7
 10
2303.405075
 20
2158.71614
 11
2303.405075
 21
2188.71614
  0
LINE
  8
RING
  6
CONTINUOUS
 62
     7
 10
2240.405075
 20
2158.71614
 11
2240.405075
 21
2188.71614
  0
LINE
  8
RING
  6
CONTINUOUS
 62
     7
 10
2266.405075
 20
2158.71614
 11
2266.405075
 21
2188.71614
  0
LINE
  8
RING
  6
CONTINUOUS
 62
     7
 10
2240.405075
 20
2158.71614
 11
2221.405075
 21
2158.71614
  0
LINE
  8
RING
  6
CONTINUOUS
 62
     7
 10
2240.405075
 20
2158.71614
 11
2266.405075
 21
2158.71614
  0
LINE
  8
RING
  6
CONTINUOUS
 62
     7
 10
2240.405075
 20
2188.71614
 11
2203.405075
 21
2188.71614
  0
LINE
  8
RING
  6
CONTINUOUS
 62
     7
 10
2266.405075
 20
2188.71614
 11
2240.405075
 21
2188.71614
  0
LINE
  8
0
  6
CONTINUOUS
 62
     3
 10
1768.405075
 20
1861.066358
 11
1768.405075
 21
1711.066358
  0
LINE
  8
0
  6
CONTINUOUS
 62
     3
 10
1788.405075
 20
1861.066358
 11
1788.405075
 21
1737.527876
  0
LINE
  8
0
  6
CONTINUOUS
 62
     3
 10
1768.405075
 20
1861.066358
 11
1788.405075
 21
1861.066358
  0
LINE
  8
DELTAWINGS
  6
CONTINUOUS
 62
     3
 10
1472.050031
 20
1318.96614
 11
2072.733631
 21
2093.71614
  0
LINE
  8
0
  6
CONTINUOUS
 62
     3
 10
1788.405075
 20
1861.066358
 11
1788.405075
 21
1726.994709
  0
LINE
  8
0
  6
CONTINUOUS
 62
     3
 10
1768.405075
 20
1861.066358
 11
1768.405075
 21
1701.199099
  0
LINE
  8
DELTAWINGS
  6
CONTINUOUS
 62
     3
 10
584.076518
 20
2093.71614
 11
1184.760119
 21
1318.96614
  0
LINE
  8
DELTAWINGS
  6
CONTINUOUS
 62
     3
 10
685.449625
 20
2042.613766
 11
821.416235
 21
1862.71962
  0
LINE
  8
DELTAWINGS
  6
CONTINUOUS
 62
     3
 10
691.877559
 20
2049.993314
 11
827.844169
 21
1974.012475
  0
LINE
  8
0
  6
CONTINUOUS
 62
     3
 10
1768.405075
 20
1861.066358
 11
1788.405075
 21
1861.066358
  0
CIRCLE
  8
DELTAWINGS
  6
CONTINUOUS
 62
     3
 10
1812.405075
 20
1791.62548
 40
3.0
  0
LINE
  8
DELTAWINGS
  6
CONTINUOUS
 62
     3
 10
1964.932591
 20
2049.993314
 11
1828.96598
 21
1974.012475
  0
LINE
  8
DELTAWINGS
  6
CONTINUOUS
 62
     3
 10
1971.360525
 20
2042.613766
 11
1835.393914
 21
1862.71962
  0
LINE
  8
0
  6
CONTINUOUS
 62
     3
 10
1826.405075
 20
1969.647751
 11
1826.405075
 21
1865.734443
  0
ARC
  8
DELTAWINGS
  6
CONTINUOUS
 62
     3
 10
1831.405075
 20
1865.734443
 40
5.0
 50
180.0
 51
322.917482
  0
CIRCLE
  8
DELTAWINGS
  6
CONTINUOUS
 62
     3
 10
1812.405075
 20
1821.62548
 40
3.0
  0
CIRCLE
  8
DELTAWINGS
  6
CONTINUOUS
 62
     3
 10
1812.405075
 20
1851.62548
 40
3.0
  0
CIRCLE
  8
DELTAWINGS
  6
CONTINUOUS
 62
     3
 10
1812.405075
 20
1881.62548
 40
3.0
  0
CIRCLE
  8
DELTAWINGS
  6
CONTINUOUS
 62
     3
 10
1812.405075
 20
1911.62548
 40
3.0
  0
ARC
  8
DELTAWINGS
  6
CONTINUOUS
 62
     3
 10
1831.405075
 20
1969.647751
 40
5.0
 50
119.197325
 51
180.0
  0
CIRCLE
  8
DELTAWINGS
  6
CONTINUOUS
 62
     3
 10
1812.405075
 20
1941.62548
 40
3.0
  0
CIRCLE
  8
DELTAWINGS
  6
CONTINUOUS
 62
     3
 10
1812.405075
 20
1971.62548
 40
3.0
  0
CIRCLE
  8
DELTAWINGS
  6
CONTINUOUS
 62
     3
 10
2050.733631
 20
2130.71614
 40
7.0
  0
CIRCLE
  8
DELTAWINGS
  6
CONTINUOUS
 62
     3
 10
2010.733604
 20
2130.71614
 40
7.0
  0
ARC
  8
DELTAWINGS
  6
CONTINUOUS
 62
     3
 10
1967.371685
 20
2045.628589
 40
5.0
 50
322.917482
 51
119.197325
  0
CIRCLE
  8
DELTAWINGS
  6
CONTINUOUS
 62
     3
 10
2050.733631
 20
2171.71614
 40
7.0
  0
CIRCLE
  8
DELTAWINGS
  6
CONTINUOUS
 62
     3
 10
2010.733604
 20
2171.71614
 40
7.0
  0
LINE
  8
DELTAWINGS
  6
CONTINUOUS
 62
     3
 10
1972.735904
 20
2188.71614
 11
2072.733631
 21
2188.71614
  0
LINE
  8
DELTAWINGS
  6
CONTINUOUS
 62
     3
 10
2072.733631
 20
2188.71614
 11
2072.733631
 21
2093.71614
  0
LINE
  8
DELTAWINGS
  6
CONTINUOUS
 62
     3
 10
1972.735904
 20
2177.09304
 11
1972.735904
 21
2188.71614
  0
ARC
  8
DELTAWINGS
  6
CONTINUOUS
 62
     3
 10
1837.735904
 20
2177.09304
 40
135.0
 50
299.197325
 51
0.0
  0
LINE
  8
DELTAWINGS
  6
CONTINUOUS
 62
     3
 10
1559.06298
 20
1881.71614
 11
1903.591455
 21
2059.245484
  0
LINE
  8
DELTAWINGS
  6
CONTINUOUS
 62
     3
 10
753.218694
 20
2059.245484
 11
1097.747169
 21
1881.71614
  0
LINE
  8
LAYER01
  6
CONTINUOUS
 62
     7
 10
1662.776281
 20
1564.96114
 11
1758.405075
 21
1564.96114
  0
LINE
  8
DEWARASSY
  6
CONTINUOUS
 62
     7
 10
1758.405075
 20
1688.301295
 11
1758.405075
 21
1564.96614
  0
LINE
  8
2-3BODY
  6
CONTINUOUS
 62
     7
 10
1758.405075
 20
1688.301295
 11
1758.405075
 21
1276.21114
  0
LINE
  8
2-3BODY
  6
CONTINUOUS
 62
     7
 10
1888.405072
 20
3223.252878
 11
1888.405072
 21
4063.252885
  0
LINE
  8
DELTAWINGS
  6
CONTINUOUS
 62
     3
 10
1788.405075
 20
3203.252881
 11
1788.405075
 21
4083.252881
  0
LINE
  8
DELTAWINGS
  6
CONTINUOUS
 62
     3
 10
1768.405075
 20
3203.252881
 11
1768.405075
 21
4083.252881
  0
LINE
  8
2-3BODY
  6
CONTINUOUS
 62
     7
 10
768.405075
 20
4063.252881
 11
768.405075
 21
3223.252881
  0
LINE
  8
DELTAWINGS
  6
CONTINUOUS
 62
     3
 10
888.405075
 20
4083.252881
 11
888.405075
 21
3203.252881
  0
LINE
  8
DELTAWINGS
  6
CONTINUOUS
 62
     3
 10
868.405075
 20
4083.252881
 11
868.405075
 21
3203.252881
  0
CIRCLE
  8
2-3BODY
  6
CONTINUOUS
 62
     7
 10
1328.405075
 20
3643.252881
 40
411.096096
  0
ARC
  8
2-3BODY
  6
CONTINUOUS
 62
     7
 10
1328.405075
 20
3643.252881
 40
700.0
 50
231.055196
 51
323.130102
  0
LINE
  8
DELTAWINGS
  6
CONTINUOUS
 62
     3
 10
888.405075
 20
3183.252881
 11
1768.405075
 21
3183.252881
  0
LINE
  8
DELTAWINGS
  6
CONTINUOUS
 62
     3
 10
888.405075
 20
3203.252881
 11
1768.405075
 21
3203.252881
  0
ARC
  8
2-3BODY
  6
CONTINUOUS
 62
     7
 10
1328.405075
 20
3643.252881
 40
700.0
 50
216.869898
 51
228.917667
  0
LINE
  8
DELTAWINGS
  6
CONTINUOUS
 62
     3
 10
572.081731
 20
3203.252881
 11
868.405075
 21
3203.252881
  0
LINE
  8
DELTAWINGS
  6
CONTINUOUS
 62
     3
 10
584.076518
 20
3183.252881
 11
868.405075
 21
3183.252881
  0
ARC
  8
DELTAWINGS
  6
CONTINUOUS
 62
     3
 10
1793.405075
 20
3138.252881
 40
5.0
 50
270.0
 51
0.0
  0
ARC
  8
DELTAWINGS
  6
CONTINUOUS
 62
     3
 10
1763.405075
 20
3138.252881
 40
5.0
 50
180.0
 51
270.0
  0
LINE
  8
DELTAWINGS
  6
CONTINUOUS
 62
     3
 10
1788.405075
 20
2898.924325
 11
1788.405075
 21
3183.252881
  0
LINE
  8
DELTAWINGS
  6
CONTINUOUS
 62
     3
 10
1768.405075
 20
2886.929538
 11
1768.405075
 21
3183.252881
  0
LINE
  8
DELTAWINGS
  6
CONTINUOUS
 62
     3
 10
1793.405075
 20
3133.252881
 11
1788.405075
 21
3133.252881
  0
LINE
  8
DELTAWINGS
  6
CONTINUOUS
 62
     3
 10
1763.405075
 20
3133.252881
 11
1768.405075
 21
3133.252881
  0
ARC
  8
DELTAWINGS
  6
CONTINUOUS
 62
     3
 10
1763.405075
 20
3248.252881
 40
5.0
 50
90.0
 51
180.0
  0
LINE
  8
DELTAWINGS
  6
CONTINUOUS
 62
     3
 10
1763.405075
 20
3253.252881
 11
1768.405075
 21
3253.252881
  0
LINE
  8
DELTAWINGS
  6
CONTINUOUS
 62
     3
 10
1758.405075
 20
3248.252881
 11
1758.405075
 21
3223.252881
  0
ARC
  8
DELTAWINGS
  6
CONTINUOUS
 62
     3
 10
1748.405075
 20
3223.252881
 40
10.0
 50
270.0
 51
0.0
  0
ARC
  8
DELTAWINGS
  6
CONTINUOUS
 62
     3
 10
1833.405075
 20
3208.252881
 40
5.0
 50
0.0
 51
90.0
  0
LINE
  8
DELTAWINGS
  6
CONTINUOUS
 62
     3
 10
1838.405075
 20
3208.252881
 11
1838.405075
 21
3203.252881
  0
LINE
  8
DELTAWINGS
  6
CONTINUOUS
 62
     3
 10
1808.405075
 20
3213.252881
 11
1833.405075
 21
3213.252881
  0
ARC
  8
DELTAWINGS
  6
CONTINUOUS
 62
     3
 10
1793.405075
 20
3248.252881
 40
5.0
 50
360.0
 51
90.0
  0
LINE
  8
DELTAWINGS
  6
CONTINUOUS
 62
     3
 10
1793.405075
 20
3253.252881
 11
1788.405075
 21
3253.252881
  0
LINE
  8
DELTAWINGS
  6
CONTINUOUS
 62
     3
 10
1798.405075
 20
3248.252881
 11
1798.405075
 21
3223.252881
  0
ARC
  8
DELTAWINGS
  6
CONTINUOUS
 62
     3
 10
1808.405075
 20
3223.252881
 40
10.0
 50
180.0
 51
270.0
  0
ARC
  8
DELTAWINGS
  6
CONTINUOUS
 62
     3
 10
1833.405075
 20
3178.252881
 40
5.0
 50
270.0
 51
0.0
  0
LINE
  8
DELTAWINGS
  6
CONTINUOUS
 62
     3
 10
1838.405075
 20
3178.252881
 11
1838.405075
 21
3183.252881
  0
LINE
  8
DELTAWINGS
  6
CONTINUOUS
 62
     3
 10
1808.405075
 20
3173.252881
 11
1833.405075
 21
3173.252881
  0
LINE
  8
DELTAWINGS
  6
CONTINUOUS
 62
     3
 10
1798.405075
 20
3138.252881
 11
1798.405075
 21
3163.252881
  0
ARC
  8
DELTAWINGS
  6
CONTINUOUS
 62
     3
 10
1808.405075
 20
3163.252881
 40
10.0
 50
90.0
 51
180.0
  0
LINE
  8
DELTAWINGS
  6
CONTINUOUS
 62
     3
 10
1758.405075
 20
3138.252881
 11
1758.405075
 21
3163.252881
  0
ARC
  8
DELTAWINGS
  6
CONTINUOUS
 62
     3
 10
1748.405075
 20
3163.252881
 40
10.0
 50
0.0
 51
90.0
  0
LINE
  8
DELTAWINGS
  6
CONTINUOUS
 62
     3
 10
1788.405075
 20
3203.252881
 11
1768.405075
 21
3203.252881
  0
LINE
  8
DELTAWINGS
  6
CONTINUOUS
 62
     3
 10
1788.405075
 20
3183.252881
 11
1768.405075
 21
3183.252881
  0
LINE
  8
DELTAWINGS
  6
CONTINUOUS
 62
     3
 10
1788.405075
 20
3183.252881
 11
2072.733631
 21
3183.252881
  0
LINE
  8
DELTAWINGS
  6
CONTINUOUS
 62
     3
 10
1788.405075
 20
3203.252881
 11
2084.728418
 21
3203.252881
  0
LINE
  8
DELTAWINGS
  6
CONTINUOUS
 62
     3
 10
858.405075
 20
4038.252881
 11
858.405075
 21
4063.252881
  0
LINE
  8
DELTAWINGS
  6
CONTINUOUS
 62
     3
 10
898.405075
 20
4038.252881
 11
898.405075
 21
4063.252881
  0
ARC
  8
2-3BODY
  6
CONTINUOUS
 62
     7
 10
1328.405075
 20
3643.252881
 40
450.0
 50
62.14621
 51
72.85379
  0
ARC
  8
2-3BODY
  6
CONTINUOUS
 62
     7
 10
1328.405075
 20
3643.252881
 40
450.0
 50
107.14621
 51
117.85379
  0
LINE
  8
2-3BODY
  6
CONTINUOUS
 62
     7
 10
1118.157474
 20
4041.117112
 11
930.540844
 21
3853.500482
  0
LINE
  8
2-3BODY
  6
CONTINUOUS
 62
     7
 10
898.405075
 20
3775.917873
 11
898.405075
 21
3510.58789
  0
LINE
  8
2-3BODY
  6
CONTINUOUS
 62
     7
 10
898.405075
 20
3775.917873
 11
898.405075
 21
3510.58789
  0
POLYLINE
  8
DELTAWINGS
  6
CONTINUOUS
 62
     3
 66
     1
 70
     1
  0
VERTEX
  8
DIMENSIONS
 10
898.405075
 20
3773.252881
  0
VERTEX
  8
DIMENSIONS
 10
898.405075
 20
3723.252881
  0
VERTEX
  8
DIMENSIONS
 10
888.405075
 20
3723.252881
  0
VERTEX
  8
DIMENSIONS
 10
888.405075
 20
3773.252881
  0
SEQEND
  8
DIMENSIONS
  0
LINE
  8
ACCESSCOVER
  6
CONTINUOUS
 62
     7
 10
898.405075
 20
3752.252881
 11
898.405075
 21
3534.252881
  0
ARC
  8
2-3BODY
  6
CONTINUOUS
 62
     7
 10
1328.405075
 20
3643.252881
 40
450.0
 50
152.14621
 51
162.85379
  0
ARC
  8
DELTAWINGS
  6
CONTINUOUS
 62
     3
 10
863.405075
 20
4038.252881
 40
5.0
 50
180.0
 51
270.0
  0
LINE
  8
DELTAWINGS
  6
CONTINUOUS
 62
     3
 10
863.405075
 20
4033.252881
 11
868.405075
 21
4033.252881
  0
ARC
  8
DELTAWINGS
  6
CONTINUOUS
 62
     3
 10
893.405075
 20
4038.252881
 40
5.0
 50
270.0
 51
0.0
  0
LINE
  8
DELTAWINGS
  6
CONTINUOUS
 62
     3
 10
893.405075
 20
4033.252881
 11
888.405075
 21
4033.252881
  0
LINE
  8
2-3BODY
  6
CONTINUOUS
 62
     7
 10
1758.405075
 20
3510.58789
 11
1758.405075
 21
3775.917873
  0
LINE
  8
2-3BODY
  6
CONTINUOUS
 62
     7
 10
1758.405075
 20
3510.587889
 11
1758.405075
 21
3775.917872
  0
POLYLINE
  8
DELTAWINGS
  6
CONTINUOUS
 62
     3
 66
     1
 70
     1
  0
VERTEX
  8
DIMENSIONS
 10
1758.405075
 20
3723.252881
  0
VERTEX
  8
DIMENSIONS
 10
1758.405075
 20
3773.252881
  0
VERTEX
  8
DIMENSIONS
 10
1768.405075
 20
3773.252881
  0
VERTEX
  8
DIMENSIONS
 10
1768.405075
 20
3723.252881
  0
SEQEND
  8
DIMENSIONS
  0
LINE
  8
ACCESSCOVER
  6
CONTINUOUS
 62
     7
 10
1758.405075
 20
3534.252881
 11
1758.405075
 21
3752.252881
  0
POLYLINE
  8
DELTAWINGS
  6
CONTINUOUS
 62
     3
 66
     1
 70
     1
  0
VERTEX
  8
DIMENSIONS
 10
1758.405075
 20
3513.252881
  0
VERTEX
  8
DIMENSIONS
 10
1758.405075
 20
3563.252881
  0
VERTEX
  8
DIMENSIONS
 10
1768.405075
 20
3563.252881
  0
VERTEX
  8
DIMENSIONS
 10
1768.405075
 20
3513.252881
  0
SEQEND
  8
DIMENSIONS
  0
ARC
  8
2-3BODY
  6
CONTINUOUS
 62
     7
 10
1328.405075
 20
3643.252881
 40
450.0
 50
17.14621
 51
27.85379
  0
LINE
  8
2-3BODY
  6
CONTINUOUS
 62
     7
 10
1726.269306
 20
3853.500482
 11
1538.652675
 21
4041.117112
  0
ARC
  8
2-3BODY
  6
CONTINUOUS
 62
     7
 10
1328.405075
 20
3643.252881
 40
700.0
 50
36.869898
 51
143.130102
  0
LINE
  8
DELTAWINGS
  6
CONTINUOUS
 62
     3
 10
1768.405075
 20
4083.252881
 11
888.405075
 21
4083.252881
  0
LINE
  8
DELTAWINGS
  6
CONTINUOUS
 62
     3
 10
1768.405075
 20
4103.252881
 11
888.405075
 21
4103.252881
  0
LINE
  8
DELTAWINGS
  6
CONTINUOUS
 62
     3
 10
888.405075
 20
4399.576225
 11
888.405075
 21
4103.252881
  0
LINE
  8
DELTAWINGS
  6
CONTINUOUS
 62
     3
 10
868.405075
 20
4387.581438
 11
868.405075
 21
4103.252881
  0
LINE
  8
DELTAWINGS
  6
CONTINUOUS
 62
     3
 10
868.405075
 20
4083.252881
 11
572.081731
 21
4083.252881
  0
ARC
  8
DELTAWINGS
  6
CONTINUOUS
 62
     3
 10
823.405075
 20
4078.252881
 40
5.0
 50
180.0
 51
270.0
  0
LINE
  8
DELTAWINGS
  6
CONTINUOUS
 62
     3
 10
818.405075
 20
4078.252881
 11
818.405075
 21
4083.252881
  0
LINE
  8
DELTAWINGS
  6
CONTINUOUS
 62
     3
 10
848.405075
 20
4073.252881
 11
823.405075
 21
4073.252881
  0
ARC
  8
DELTAWINGS
  6
CONTINUOUS
 62
     3
 10
848.405075
 20
4063.252881
 40
10.0
 50
0.0
 51
90.0
  0
ARC
  8
DELTAWINGS
  6
CONTINUOUS
 62
     3
 10
823.405075
 20
4108.252881
 40
5.0
 50
90.0
 51
180.0
  0
LINE
  8
DELTAWINGS
  6
CONTINUOUS
 62
     3
 10
818.405075
 20
4108.252881
 11
818.405075
 21
4103.252881
  0
LINE
  8
DELTAWINGS
  6
CONTINUOUS
 62
     3
 10
848.405075
 20
4113.252881
 11
823.405075
 21
4113.252881
  0
ARC
  8
DELTAWINGS
  6
CONTINUOUS
 62
     3
 10
863.405075
 20
4148.252881
 40
5.0
 50
90.0
 51
180.0
  0
LINE
  8
DELTAWINGS
  6
CONTINUOUS
 62
     3
 10
863.405075
 20
4153.252881
 11
868.405075
 21
4153.252881
  0
LINE
  8
DELTAWINGS
  6
CONTINUOUS
 62
     3
 10
858.405075
 20
4148.252881
 11
858.405075
 21
4123.252881
  0
ARC
  8
DELTAWINGS
  6
CONTINUOUS
 62
     3
 10
848.405075
 20
4123.252881
 40
10.0
 50
270.0
 51
0.0
  0
ARC
  8
DELTAWINGS
  6
CONTINUOUS
 62
     3
 10
933.405075
 20
4108.252881
 40
5.0
 50
0.0
 51
90.0
  0
LINE
  8
DELTAWINGS
  6
CONTINUOUS
 62
     3
 10
938.405075
 20
4108.252881
 11
938.405075
 21
4103.252881
  0
LINE
  8
DELTAWINGS
  6
CONTINUOUS
 62
     3
 10
908.405075
 20
4113.252881
 11
933.405075
 21
4113.252881
  0
ARC
  8
DELTAWINGS
  6
CONTINUOUS
 62
     3
 10
893.405075
 20
4148.252881
 40
5.0
 50
360.0
 51
90.0
  0
LINE
  8
DELTAWINGS
  6
CONTINUOUS
 62
     3
 10
893.405075
 20
4153.252881
 11
888.405075
 21
4153.252881
  0
LINE
  8
DELTAWINGS
  6
CONTINUOUS
 62
     3
 10
898.405075
 20
4148.252881
 11
898.405075
 21
4123.252881
  0
ARC
  8
DELTAWINGS
  6
CONTINUOUS
 62
     3
 10
908.405075
 20
4123.252881
 40
10.0
 50
180.0
 51
270.0
  0
ARC
  8
DELTAWINGS
  6
CONTINUOUS
 62
     3
 10
933.405075
 20
4078.252881
 40
5.0
 50
270.0
 51
0.0
  0
LINE
  8
DELTAWINGS
  6
CONTINUOUS
 62
     3
 10
938.405075
 20
4078.252881
 11
938.405075
 21
4083.252881
  0
LINE
  8
DELTAWINGS
  6
CONTINUOUS
 62
     3
 10
908.405075
 20
4073.252881
 11
933.405075
 21
4073.252881
  0
ARC
  8
DELTAWINGS
  6
CONTINUOUS
 62
     3
 10
908.405075
 20
4063.252881
 40
10.0
 50
90.0
 51
180.0
  0
LINE
  8
DELTAWINGS
  6
CONTINUOUS
 62
     3
 10
888.405075
 20
4103.252881
 11
868.405075
 21
4103.252881
  0
LINE
  8
DELTAWINGS
  6
CONTINUOUS
 62
     3
 10
888.405075
 20
4083.252881
 11
868.405075
 21
4083.252881
  0
LINE
  8
DELTAWINGS
  6
CONTINUOUS
 62
     3
 10
868.405075
 20
4103.252881
 11
584.076518
 21
4103.252881
  0
LINE
  8
DELTAWINGS
  6
CONTINUOUS
 62
     3
 10
1788.405075
 20
4103.252881
 11
1788.405075
 21
4387.581438
  0
LINE
  8
DELTAWINGS
  6
CONTINUOUS
 62
     3
 10
1768.405075
 20
4103.252881
 11
1768.405075
 21
4399.576225
  0
LINE
  8
2-3BODY
  6
CONTINUOUS
 62
     7
 10
1461.070066
 20
4073.252881
 11
1195.740083
 21
4073.252881
  0
LINE
  8
2-3BODY
  6
CONTINUOUS
 62
     7
 10
1461.070067
 20
4073.252881
 11
1195.740084
 21
4073.252881
  0
POLYLINE
  8
DELTAWINGS
  6
CONTINUOUS
 62
     3
 66
     1
 70
     1
  0
VERTEX
  8
DIMENSIONS
 10
1248.405075
 20
4073.252881
  0
VERTEX
  8
DIMENSIONS
 10
1198.405075
 20
4073.252881
  0
VERTEX
  8
DIMENSIONS
 10
1198.405075
 20
4083.252881
  0
VERTEX
  8
DIMENSIONS
 10
1248.405075
 20
4083.252881
  0
SEQEND
  8
DIMENSIONS
  0
POLYLINE
  8
DELTAWINGS
  6
CONTINUOUS
 62
     3
 66
     1
 70
     1
  0
VERTEX
  8
DIMENSIONS
 10
1458.405075
 20
4073.252881
  0
VERTEX
  8
DIMENSIONS
 10
1408.405075
 20
4073.252881
  0
VERTEX
  8
DIMENSIONS
 10
1408.405075
 20
4083.252881
  0
VERTEX
  8
DIMENSIONS
 10
1458.405075
 20
4083.252881
  0
SEQEND
  8
DIMENSIONS
  0
LINE
  8
DELTAWINGS
  6
CONTINUOUS
 62
     3
 10
1788.405075
 20
4103.252881
 11
1768.405075
 21
4103.252881
  0
LINE
  8
DELTAWINGS
  6
CONTINUOUS
 62
     3
 10
1788.405075
 20
4083.252881
 11
1768.405075
 21
4083.252881
  0
LINE
  8
DELTAWINGS
  6
CONTINUOUS
 62
     3
 10
2072.733631
 20
4103.252881
 11
1788.405075
 21
4103.252881
  0
LINE
  8
DELTAWINGS
  6
CONTINUOUS
 62
     3
 10
2084.728418
 20
4083.252881
 11
1788.405075
 21
4083.252881
  0
ARC
  8
RING
  6
CONTINUOUS
 62
     7
 10
2256.202975
 20
3448.586356
 40
10.0
 50
168.150337
 51
223.877948
  0
ARC
  8
RING
  6
CONTINUOUS
 62
     7
 10
2225.928621
 20
3419.475129
 40
32.0
 50
110.299131
 51
43.877948
  0
ARC
  8
RING
  6
CONTINUOUS
 62
     7
 10
1328.405075
 20
3643.252881
 40
975.0
 50
336.870225
 51
23.129775
  0
ARC
  8
RING
  6
CONTINUOUS
 62
     7
 10
1328.405075
 20
3643.252881
 40
975.0
 50
156.870225
 51
203.129775
  0
CIRCLE
  8
RING
  6
CONTINUOUS
 62
     7
 10
1328.405075
 20
3643.252881
 40
875.0
  0
CIRCLE
  8
RING
  6
CONTINUOUS
 62
     7
 10
1328.405075
 20
3643.252881
 40
975.0
  0
CIRCLE
  8
RING
  6
HIDDEN
 62
     7
 10
1328.405075
 20
3643.252881
 40
957.0
  0
CIRCLE
  8
RING
  6
HIDDEN
 62
     7
 10
1328.405075
 20
3643.252881
 40
893.0
  0
ARC
  8
RING
  6
CONTINUOUS
 62
     7
 10
1328.405075
 20
3643.252881
 40
899.5
 50
311.0
 51
315.0
  0
ARC
  8
RING
  6
CONTINUOUS
 62
     7
 10
1982.478847
 20
2989.17911
 40
25.5
 50
315.0
 51
135.0
  0
ARC
  8
RING
  6
CONTINUOUS
 62
     7
 10
1328.405075
 20
3643.252881
 40
950.5
 50
311.0
 51
315.0
  0
ARC
  8
RING
  6
CONTINUOUS
 62
     7
 10
1935.259676
 20
2945.14652
 40
25.5
 50
131.0
 51
311.0
  0
ARC
  8
RING
  6
CONTINUOUS
 62
     7
 10
2173.434623
 20
3267.021487
 40
32.0
 50
100.299131
 51
33.877948
  0
ARC
  8
RING
  6
CONTINUOUS
 62
     7
 10
2208.304151
 20
3290.433362
 40
10.0
 50
158.150337
 51
213.877948
  0
ARC
  8
RING
  6
CONTINUOUS
 62
     7
 10
1328.405075
 20
3643.252881
 40
912.0
 50
338.204493
 51
340.0
  0
ARC
  8
RING
  6
CONTINUOUS
 62
     7
 10
2165.925557
 20
3308.344772
 40
10.0
 50
280.299131
 51
338.204493
  0
ARC
  8
RING
  6
CONTINUOUS
 62
     7
 10
1328.405075
 20
3643.252881
 40
938.0
 50
338.150337
 51
340.0
  0
ARC
  8
RING
  6
CONTINUOUS
 62
     7
 10
2197.620748
 20
3326.88425
 40
13.0
 50
340.0
 51
160.0
  0
ARC
  8
RING
  6
CONTINUOUS
 62
     7
 10
1328.405075
 20
3643.252881
 40
912.0
 50
168.204493
 51
170.0
  0
ARC
  8
RING
  6
CONTINUOUS
 62
     7
 10
445.452226
 20
3827.639079
 40
10.0
 50
110.299131
 51
168.204493
  0
ARC
  8
RING
  6
CONTINUOUS
 62
     7
 10
1328.405075
 20
3643.252881
 40
938.0
 50
168.150337
 51
170.0
  0
ARC
  8
RING
  6
CONTINUOUS
 62
     7
 10
400.607174
 20
3837.919409
 40
10.0
 50
348.150337
 51
43.877948
  0
ARC
  8
RING
  6
CONTINUOUS
 62
     7
 10
430.881528
 20
3867.030636
 40
32.0
 50
290.299131
 51
223.877948
  0
ARC
  8
RING
  6
CONTINUOUS
 62
     7
 10
417.457902
 20
3803.877445
 40
13.0
 50
170.0
 51
350.0
  0
ARC
  8
RING
  6
CONTINUOUS
 62
     7
 10
490.884592
 20
3978.160991
 40
10.0
 50
100.299131
 51
158.204493
  0
ARC
  8
RING
  6
CONTINUOUS
 62
     7
 10
1328.405075
 20
3643.252881
 40
938.0
 50
158.150337
 51
160.0
  0
ARC
  8
RING
  6
CONTINUOUS
 62
     7
 10
448.505996
 20
3996.072401
 40
10.0
 50
338.150337
 51
33.877948
  0
ARC
  8
RING
  6
CONTINUOUS
 62
     7
 10
1328.405075
 20
3643.252881
 40
912.0
 50
158.204493
 51
160.0
  0
ARC
  8
RING
  6
CONTINUOUS
 62
     7
 10
459.189399
 20
3959.621514
 40
13.0
 50
160.0
 51
340.0
  0
ARC
  8
RING
  6
CONTINUOUS
 62
     7
 10
483.375526
 20
4019.484276
 40
32.0
 50
280.299131
 51
213.877948
  0
ARC
  8
RING
  6
CONTINUOUS
 62
     7
 10
2248.337827
 20
3739.94171
 40
32.0
 50
130.299131
 51
63.877948
  0
ARC
  8
RING
  6
CONTINUOUS
 62
     7
 10
1328.405075
 20
3643.252881
 40
938.0
 50
348.150337
 51
350.0
  0
ARC
  8
RING
  6
CONTINUOUS
 62
     7
 10
2239.352245
 20
3482.628317
 40
13.0
 50
350.0
 51
170.0
  0
ARC
  8
RING
  6
CONTINUOUS
 62
     7
 10
2211.357922
 20
3458.866684
 40
10.0
 50
290.299131
 51
348.204493
  0
ARC
  8
RING
  6
CONTINUOUS
 62
     7
 10
1328.405075
 20
3643.252881
 40
912.0
 50
348.204493
 51
350.0
  0
ARC
  8
RING
  6
CONTINUOUS
 62
     7
 10
2217.572142
 20
3898.217435
 40
32.0
 50
140.299131
 51
73.877948
  0
ARC
  8
RING
  6
CONTINUOUS
 62
     7
 10
1328.405075
 20
3643.252881
 40
912.0
 50
8.204493
 51
10.0
  0
ARC
  8
RING
  6
CONTINUOUS
 62
     7
 10
2221.173142
 20
3771.974192
 40
10.0
 50
310.299131
 51
8.204493
  0
ARC
  8
RING
  6
CONTINUOUS
 62
     7
 10
1328.405075
 20
3643.252881
 40
938.0
 50
8.150337
 51
10.0
  0
ARC
  8
RING
  6
CONTINUOUS
 62
     7
 10
2266.829788
 20
3777.651754
 40
10.0
 50
188.150337
 51
243.877948
  0
ARC
  8
RING
  6
CONTINUOUS
 62
     7
 10
2239.352245
 20
3803.877446
 40
13.0
 50
10.0
 51
190.0
  0
ARC
  8
RING
  6
CONTINUOUS
 62
     7
 10
1328.405075
 20
3643.252881
 40
912.0
 50
18.204493
 51
20.0
  0
ARC
  8
RING
  6
CONTINUOUS
 62
     7
 10
2185.257768
 20
3925.046174
 40
10.0
 50
320.299131
 51
18.204493
  0
ARC
  8
RING
  6
CONTINUOUS
 62
     7
 10
2229.234888
 20
3938.565674
 40
10.0
 50
198.150337
 51
253.877948
  0
ARC
  8
RING
  6
CONTINUOUS
 62
     7
 10
1328.405075
 20
3643.252881
 40
938.0
 50
18.150337
 51
20.0
  0
ARC
  8
RING
  6
CONTINUOUS
 62
     7
 10
2197.620748
 20
3959.621515
 40
13.0
 50
20.0
 51
200.0
  0
ARC
  8
RING
  6
CONTINUOUS
 62
     7
 10
721.550472
 20
4341.359243
 40
25.5
 50
311.0
 51
131.0
  0
ARC
  8
RING
  6
CONTINUOUS
 62
     7
 10
1328.405075
 20
3643.252881
 40
899.5
 50
131.0
 51
135.0
  0
ARC
  8
RING
  6
CONTINUOUS
 62
     7
 10
1328.405075
 20
3643.252881
 40
950.5
 50
131.0
 51
135.0
  0
ARC
  8
RING
  6
CONTINUOUS
 62
     7
 10
674.331301
 20
4297.326655
 40
25.5
 50
135.0
 51
315.0
  0
ARC
  8
RING
  6
CONTINUOUS
 62
     7
 10
2026.511435
 20
4250.107484
 40
25.5
 50
221.0
 51
41.0
  0
ARC
  8
RING
  6
CONTINUOUS
 62
     7
 10
1328.405075
 20
3643.252881
 40
950.5
 50
41.0
 51
45.0
  0
ARC
  8
RING
  6
CONTINUOUS
 62
     7
 10
1982.478847
 20
4297.326655
 40
25.5
 50
45.0
 51
225.0
  0
ARC
  8
RING
  6
CONTINUOUS
 62
     7
 10
1328.405075
 20
3643.252881
 40
899.5
 50
41.0
 51
45.0
  0
ARC
  8
RING
  6
CONTINUOUS
 62
     7
 10
1704.636468
 20
4488.282429
 40
32.0
 50
190.299131
 51
123.877948
  0
ARC
  8
RING
  6
CONTINUOUS
 62
     7
 10
1328.405075
 20
3643.252881
 40
938.0
 50
68.150337
 51
70.0
  0
ARC
  8
RING
  6
CONTINUOUS
 62
     7
 10
1644.773706
 20
4512.468556
 40
13.0
 50
70.0
 51
250.0
  0
ARC
  8
RING
  6
CONTINUOUS
 62
     7
 10
1075.086432
 20
4532.857799
 40
32.0
 50
230.009131
 51
163.587948
  0
ARC
  8
RING
  6
CONTINUOUS
 62
     7
 10
1013.582158
 20
4513.217452
 40
13.0
 50
109.71
 51
289.71
  0
ARC
  8
RING
  6
CONTINUOUS
 62
     7
 10
1552.182828
 20
4540.776429
 40
32.0
 50
200.299131
 51
133.877948
  0
ARC
  8
RING
  6
CONTINUOUS
 62
     7
 10
1048.09448
 20
4500.67963
 40
10.0
 50
50.009131
 51
107.914493
  0
ARC
  8
RING
  6
CONTINUOUS
 62
     7
 10
1325.54726
 20
3642.411634
 40
912.0
 50
107.914493
 51
109.71
  0
ARC
  8
RING
  6
CONTINUOUS
 62
     7
 10
1328.405075
 20
3643.252881
 40
912.0
 50
68.204493
 51
70.0
  0
ARC
  8
RING
  6
CONTINUOUS
 62
     7
 10
1663.313183
 20
4480.773364
 40
10.0
 50
10.299131
 51
68.204493
  0
ARC
  8
RING
  6
CONTINUOUS
 62
     7
 10
1681.224593
 20
4523.15196
 40
10.0
 50
248.150337
 51
303.877948
  0
ARC
  8
RING
  6
CONTINUOUS
 62
     7
 10
1328.405075
 20
3643.252881
 40
912.0
 50
98.204493
 51
100.0
  0
ARC
  8
RING
  6
CONTINUOUS
 62
     7
 10
1167.780509
 20
4554.200053
 40
13.0
 50
100.0
 51
280.0
  0
ARC
  8
RING
  6
CONTINUOUS
 62
     7
 10
1034.797741
 20
4544.724615
 40
10.0
 50
287.860337
 51
343.587948
  0
ARC
  8
RING
  6
CONTINUOUS
 62
     7
 10
1199.683763
 20
4536.02095
 40
10.0
 50
40.299131
 51
98.204493
  0
ARC
  8
RING
  6
CONTINUOUS
 62
     7
 10
1325.54726
 20
3642.411634
 40
938.0
 50
107.860337
 51
109.71
  0
ARC
  8
RING
  6
CONTINUOUS
 62
     7
 10
1231.716245
 20
4563.185635
 40
32.0
 50
220.299131
 51
153.877948
  0
ARC
  8
RING
  6
CONTINUOUS
 62
     7
 10
1328.405075
 20
3643.252881
 40
938.0
 50
98.150337
 51
100.0
  0
ARC
  8
RING
  6
CONTINUOUS
 62
     7
 10
1194.006201
 20
4581.677596
 40
10.0
 50
278.150337
 51
333.877948
  0
ARC
  8
RING
  6
CONTINUOUS
 62
     7
 10
1328.405075
 20
3643.252881
 40
912.0
 50
78.204493
 51
80.0
  0
ARC
  8
RING
  6
CONTINUOUS
 62
     7
 10
1512.791271
 20
4526.205729
 40
10.0
 50
20.299131
 51
78.204493
  0
ARC
  8
RING
  6
CONTINUOUS
 62
     7
 10
1328.405075
 20
3643.252881
 40
938.0
 50
78.150337
 51
80.0
  0
ARC
  8
RING
  6
CONTINUOUS
 62
     7
 10
1523.071601
 20
4571.050781
 40
10.0
 50
258.150337
 51
313.877948
  0
ARC
  8
RING
  6
CONTINUOUS
 62
     7
 10
1489.029638
 20
4554.200054
 40
13.0
 50
80.0
 51
260.0
  0
LINE
  8
0
  6
CONTINUOUS
 62
     7
 10
674.331301
 20
4297.326655
 11
721.550472
 21
4341.359243
  0
INSERT
  8
LAYER01
  2
DELTA22-G1
 10
0.0
 20
0.0
  0
INSERT
  8
LAYER01
  2
DELTA22-G2
 10
0.0
 20
0.0
  0
INSERT
  8
LAYER01
  2
DELTA22-G3
 10
0.0
 20
0.0
  0
INSERT
  8
LAYER01
  2
DELTA22-G4
 10
0.0
 20
0.0
  0
POLYLINE
  8
LAYER01
  6
CONTINUOUS
 62
     7
 66
     1
 70
     1
  0
VERTEX
  8
LAYER01
 10
-85.808488
 20
3643.25288
  0
VERTEX
  8
LAYER01
 10
1328.405075
 20
5057.466443
  0
VERTEX
  8
LAYER01
 10
2742.618637
 20
3643.25288
  0
VERTEX
  8
LAYER01
 10
1328.405075
 20
2229.039318
  0
SEQEND
  8
LAYER01
  0
CIRCLE
  8
LAYER01
  6
CONTINUOUS
 62
     7
 10
1328.405075
 20
4887.760816
 40
30.0
  0
CIRCLE
  8
LAYER01
  6
CONTINUOUS
 62
     7
 10
1328.405075
 20
4887.760816
 40
50.0
  0
CIRCLE
  8
LAYER01
  6
CONTINUOUS
 62
     7
 10
2572.91301
 20
3643.252881
 40
30.0
  0
CIRCLE
  8
LAYER01
  6
CONTINUOUS
 62
     7
 10
2572.91301
 20
3643.252881
 40
50.0
  0
LINE
  8
RING
  6
CONTINUOUS
 62
     7
 10
-176.048135
 20
2114.692257
 11
-176.048135
 21
2189.692257
  0
LINE
  8
RING
  6
CONTINUOUS
 62
     7
 10
-194.048135
 20
2114.692257
 11
-194.048135
 21
2159.692257
  0
LINE
  8
RING
  6
CONTINUOUS
 62
     7
 10
-258.048135
 20
2114.692257
 11
-258.048135
 21
2159.692257
  0
LINE
  8
RING
  6
CONTINUOUS
 62
     7
 10
-276.048135
 20
2114.692257
 11
-276.048135
 21
2189.692257
  0
LINE
  8
RING
  6
CONTINUOUS
 62
     7
 10
-176.048135
 20
2114.692257
 11
191.650457
 21
2114.692257
  0
LINE
  8
RING
  6
CONTINUOUS
 62
     7
 10
-258.048135
 20
2114.692257
 11
-276.048135
 21
2114.692257
  0
LINE
  8
RING
  6
CONTINUOUS
 62
     7
 10
-258.048135
 20
2114.692257
 11
-194.048135
 21
2114.692257
  0
LINE
  8
RING
  6
CONTINUOUS
 62
     7
 10
-194.048135
 20
2114.692257
 11
-176.048135
 21
2114.692257
  0
LINE
  8
RING
  6
CONTINUOUS
 62
     3
 10
-104.380408
 20
2189.692257
 11
-176.048135
 21
2189.692257
  0
LINE
  8
RING
  6
CONTINUOUS
 62
     7
 10
181.719151
 20
2189.692257
 11
-176.048135
 21
2189.692257
  0
LINE
  8
RING
  6
CONTINUOUS
 62
     7
 10
-213.048135
 20
2189.692257
 11
-239.048135
 21
2189.692257
  0
LINE
  8
RING
  6
CONTINUOUS
 62
     7
 10
-176.048135
 20
2189.692257
 11
-213.048135
 21
2189.692257
  0
LINE
  8
RING
  6
CONTINUOUS
 62
     7
 10
-239.048135
 20
2189.692257
 11
-276.048135
 21
2189.692257
  0
LINE
  8
RING
  6
CONTINUOUS
 62
     7
 10
-213.048135
 20
2159.692257
 11
-213.048135
 21
2189.692257
  0
LINE
  8
RING
  6
CONTINUOUS
 62
     7
 10
-239.048135
 20
2159.692257
 11
-239.048135
 21
2189.692257
  0
LINE
  8
RING
  6
CONTINUOUS
 62
     7
 10
-239.048135
 20
2159.692257
 11
-213.048135
 21
2159.692257
  0
LINE
  8
RING
  6
CONTINUOUS
 62
     7
 10
-239.048135
 20
2159.692257
 11
-258.048135
 21
2159.692257
  0
LINE
  8
RING
  6
CONTINUOUS
 62
     7
 10
-194.048135
 20
2159.692257
 11
-213.048135
 21
2159.692257
  0
LINE
  8
DELTAWINGBRACKET
  6
CONTINUOUS
 62
     7
 10
-155.478624
 20
2172.692257
 11
-152.617645
 21
2172.692257
  0
POLYLINE
  8
DELTAWINGBRACKET
  6
CONTINUOUS
 62
     7
 66
     1
 70
     1
  0
VERTEX
  8
0
 10
-156.17989
 20
2176.384565
  0
VERTEX
  8
0
 10
-158.311644
 20
2172.692257
  0
VERTEX
  8
0
 10
-156.17989
 20
2168.999949
  0
VERTEX
  8
0
 10
-151.91638
 20
2168.999949
  0
VERTEX
  8
0
 10
-149.784625
 20
2172.692257
  0
VERTEX
  8
0
 10
-151.91638
 20
2176.384565
  0
SEQEND
  8
0
  0
LINE
  8
DELTAWINGBRACKET
  6
CONTINUOUS
 62
     7
 10
-154.048135
 20
2162.213065
 11
-154.048135
 21
2169.899422
  0
LINE
  8
DELTAWINGBRACKET
  6
CONTINUOUS
 62
     7
 10
-154.048135
 20
2183.171449
 11
-154.048135
 21
2175.485092
  0
LINE
  8
DELTAWINGBRACKET
  6
CONTINUOUS
 62
     7
 10
-154.048135
 20
2171.261768
 11
-154.048135
 21
2174.122747
  0
LINE
  8
DELTAWINGBRACKET
  6
CONTINUOUS
 62
     7
 10
-164.527327
 20
2172.692257
 11
-156.840969
 21
2172.692257
  0
CIRCLE
  8
DELTAWINGBRACKET
  6
CONTINUOUS
 62
     7
 10
-154.048135
 20
2172.692257
 40
6.769231
  0
CIRCLE
  8
DELTAWINGBRACKET
  6
CONTINUOUS
 62
     7
 10
-154.048135
 20
2172.692257
 40
8.0
  0
LINE
  8
DELTAWINGBRACKET
  6
CONTINUOUS
 62
     7
 10
-151.2553
 20
2172.692257
 11
-143.568943
 21
2172.692257
  0
LINE
  8
DELTAWINGBRACKET
  6
CONTINUOUS
 62
     7
 10
-155.478624
 20
2131.692257
 11
-152.617645
 21
2131.692257
  0
POLYLINE
  8
DELTAWINGBRACKET
  6
CONTINUOUS
 62
     7
 66
     1
 70
     1
  0
VERTEX
  8
0
 10
-156.17989
 20
2135.384565
  0
VERTEX
  8
0
 10
-158.311644
 20
2131.692257
  0
VERTEX
  8
0
 10
-156.17989
 20
2127.999949
  0
VERTEX
  8
0
 10
-151.91638
 20
2127.999949
  0
VERTEX
  8
0
 10
-149.784625
 20
2131.692257
  0
VERTEX
  8
0
 10
-151.91638
 20
2135.384565
  0
SEQEND
  8
0
  0
LINE
  8
DELTAWINGBRACKET
  6
CONTINUOUS
 62
     7
 10
-154.048135
 20
2121.213065
 11
-154.048135
 21
2128.899422
  0
LINE
  8
DELTAWINGBRACKET
  6
CONTINUOUS
 62
     7
 10
-154.048135
 20
2142.171449
 11
-154.048135
 21
2134.485092
  0
LINE
  8
DELTAWINGBRACKET
  6
CONTINUOUS
 62
     7
 10
-154.048135
 20
2130.261768
 11
-154.048135
 21
2133.122747
  0
LINE
  8
DELTAWINGBRACKET
  6
CONTINUOUS
 62
     7
 10
-164.527327
 20
2131.692257
 11
-156.840969
 21
2131.692257
  0
CIRCLE
  8
DELTAWINGBRACKET
  6
CONTINUOUS
 62
     7
 10
-154.048135
 20
2131.692257
 40
6.769231
  0
CIRCLE
  8
DELTAWINGBRACKET
  6
CONTINUOUS
 62
     7
 10
-154.048135
 20
2131.692257
 40
8.0
  0
LINE
  8
DELTAWINGBRACKET
  6
CONTINUOUS
 62
     7
 10
-151.2553
 20
2131.692257
 11
-143.568943
 21
2131.692257
  0
LINE
  8
DELTAWINGS
  6
CONTINUOUS
 62
     3
 10
-176.048135
 20
2094.692257
 11
70.80836
 21
1776.301562
  0
LINE
  8
DELTAWINGBRACKET
  6
CONTINUOUS
 62
     1
 10
-176.048135
 20
2189.692257
 11
108.280422
 21
2189.692257
  0
LINE
  8
DELTAWINGBRACKET
  6
CONTINUOUS
 62
     1
 10
108.280422
 20
2114.692257
 11
-176.048135
 21
2114.692257
  0
LINE
  8
DELTAWINGS
  6
CONTINUOUS
 62
     3
 10
-176.048135
 20
2189.692257
 11
-176.048135
 21
2094.692257
  0
LINE
  8
DELTAWINGS
  6
CONTINUOUS
 62
     3
 10
-76.050408
 20
2189.692257
 11
-176.048135
 21
2189.692257
  0
LINE
  8
DIMENSIONS
  6
CENTER
 62
     7
 10
3500.632275
 20
1261.132941
 11
3500.632275
 21
1924.687416
  0
LINE
  8
DELTAWINGS
  6
CONTINUOUS
 62
     3
 10
3331.952918
 20
1770.063576
 11
3331.952918
 21
1665.468023
  0
LINE
  8
DELTAWINGS
  6
CONTINUOUS
 62
     3
 10
3181.286804
 20
1614.4532
 11
3322.964078
 21
1427.003411
  0
LINE
  8
DELTAWINGS
  6
CONTINUOUS
 62
     3
 10
3356.987319
 20
1318.96614
 11
3644.277231
 21
1318.96614
  0
CIRCLE
  8
DELTAWINGS
  6
CONTINUOUS
 62
     3
 10
3500.632275
 20
1450.96614
 40
112.0
  0
CIRCLE
  8
DELTAWINGS
  6
CONTINUOUS
 62
     3
 10
3387.632275
 20
1351.96614
 40
7.0
  0
ARC
  8
DELTAWINGS
  6
CONTINUOUS
 62
     3
 10
3326.952918
 20
1430.018234
 40
5.0
 50
217.082518
 51
0.0
  0
CIRCLE
  8
DELTAWINGS
  6
CONTINUOUS
 62
     3
 10
3387.632275
 20
1549.96614
 40
7.0
  0
CIRCLE
  8
DELTAWINGS
  6
CONTINUOUS
 62
     3
 10
3613.632275
 20
1351.96614
 40
7.0
  0
CIRCLE
  8
DELTAWINGS
  6
CONTINUOUS
 62
     3
 10
3613.632275
 20
1549.96614
 40
7.0
  0
LINE
  8
DIMENSIONS
  6
CONTINUOUS
 62
     7
 10
3500.632275
 20
1443.46614
 11
3500.632275
 21
1458.46614
  0
LINE
  8
DIMENSIONS
  6
CONTINUOUS
 62
     7
 10
3493.132275
 20
1450.96614
 11
3508.132275
 21
1450.96614
  0
LINE
  8
DELTAWINGBRACKET
  6
CONTINUOUS
 62
     1
 10
3098.732275
 20
1716.62548
 11
3098.732275
 21
1956.62548
  0
LINE
  8
DELTAWINGBRACKET
  6
CONTINUOUS
 62
     1
 10
3060.632275
 20
1716.62548
 11
3060.632275
 21
1956.62548
  0
LINE
  8
DELTAWINGBRACKET
  6
CONTINUOUS
 62
     1
 10
3070.157275
 20
1716.62548
 11
3070.157275
 21
1956.62548
  0
LINE
  8
DELTAWINGBRACKET
  6
CONTINUOUS
 62
     1
 10
3031.107275
 20
1986.62548
 11
3031.107275
 21
1776.62548
  0
LINE
  8
DELTAWINGBRACKET
  6
CONTINUOUS
 62
     1
 10
3040.632275
 20
1986.62548
 11
3040.632275
 21
1776.62548
  0
LINE
  8
DELTAWINGBRACKET
  6
CONTINUOUS
 62
     1
 10
3002.532275
 20
1986.62548
 11
3002.532275
 21
1776.62548
  0
LINE
  8
DELTAWINGS
  6
CONTINUOUS
 62
     3
 10
4143.587725
 20
2042.613766
 11
4007.621115
 21
1862.71962
  0
LINE
  8
0
  6
CONTINUOUS
 62
     3
 10
3998.632275
 20
1969.647751
 11
3998.632275
 21
1865.734443
  0
LINE
  8
0
  6
CONTINUOUS
 62
     3
 10
3098.632275
 20
1910.412848
 11
3098.632275
 21
1720.628202
  0
LINE
  8
0
  6
CONTINUOUS
 62
     3
 10
3002.632275
 20
1969.647751
 11
3002.632275
 21
1865.734443
  0
LINE
  8
DELTAWINGS
  6
CONTINUOUS
 62
     3
 10
2857.676825
 20
2042.613766
 11
2993.643436
 21
1862.71962
  0
LINE
  8
DELTAWINGS
  6
CONTINUOUS
 62
     3
 10
3106.07137
 20
1914.777573
 11
3220.551439
 21
1850.803839
  0
CIRCLE
  8
DELTAWINGS
  6
CONTINUOUS
 62
     3
 10
3500.632275
 20
1734.71614
 40
112.0
  0
LINE
  8
DELTAWINGS
  6
CONTINUOUS
 62
     3
 10
3178.199782
 20
1668.18884
 11
3258.39375
 21
1791.830117
  0
LINE
  8
DELTAWINGS
  6
CONTINUOUS
 62
     3
 10
3135.411859
 20
1709.744932
 11
3222.307241
 21
1843.718298
  0
LINE
  8
0
  6
CONTINUOUS
 62
     3
 10
3040.632275
 20
1861.066358
 11
3040.632275
 21
1726.994709
  0
LINE
  8
0
  6
CONTINUOUS
 62
     3
 10
3060.632275
 20
1861.066358
 11
3060.632275
 21
1701.199099
  0
LINE
  8
DELTAWINGBRACKET
  6
CONTINUOUS
 62
     1
 10
3098.732275
 20
1716.62548
 11
3060.632275
 21
1716.62548
  0
CIRCLE
  8
DELTAWINGS
  6
CONTINUOUS
 62
     3
 10
3084.632275
 20
1731.62548
 40
3.0
  0
CIRCLE
  8
DELTAWINGS
  6
CONTINUOUS
 62
     3
 10
3387.632275
 20
1640.71614
 40
7.0
  0
LINE
  8
DELTAWINGBRACKET
  6
CONTINUOUS
 62
     1
 10
3002.532275
 20
1776.62548
 11
3040.632275
 21
1776.62548
  0
CIRCLE
  8
DELTAWINGS
  6
CONTINUOUS
 62
     3
 10
3084.632275
 20
1761.62548
 40
3.0
  0
CIRCLE
  8
DELTAWINGS
  6
CONTINUOUS
 62
     3
 10
3084.632275
 20
1791.62548
 40
3.0
  0
CIRCLE
  8
DELTAWINGS
  6
CONTINUOUS
 62
     3
 10
3084.632275
 20
1821.62548
 40
3.0
  0
CIRCLE
  8
DELTAWINGS
  6
CONTINUOUS
 62
     3
 10
3016.632275
 20
1791.62548
 40
3.0
  0
CIRCLE
  8
DELTAWINGS
  6
CONTINUOUS
 62
     3
 10
3016.632275
 20
1821.62548
 40
3.0
  0
CIRCLE
  8
DELTAWINGS
  6
CONTINUOUS
 62
     3
 10
3016.632275
 20
1851.62548
 40
3.0
  0
CIRCLE
  8
DELTAWINGS
  6
CONTINUOUS
 62
     3
 10
3084.632275
 20
1851.62548
 40
3.0
  0
CIRCLE
  8
DELTAWINGS
  6
CONTINUOUS
 62
     3
 10
3084.632275
 20
1881.62548
 40
3.0
  0
CIRCLE
  8
DELTAWINGS
  6
CONTINUOUS
 62
     3
 10
3016.632275
 20
1881.62548
 40
3.0
  0
ARC
  8
DELTAWINGS
  6
CONTINUOUS
 62
     3
 10
2997.632275
 20
1865.734443
 40
5.0
 50
217.082518
 51
0.0
  0
LINE
  8
0
  6
CONTINUOUS
 62
     3
 10
3060.632275
 20
1861.066358
 11
3040.632275
 21
1861.066358
  0
CIRCLE
  8
DELTAWINGS
  6
CONTINUOUS
 62
     3
 10
3387.632275
 20
1838.71614
 40
7.0
  0
LINE
  8
0
  6
CONTINUOUS
 62
     3
 10
3960.632275
 20
1861.066358
 11
3960.632275
 21
1726.994709
  0
LINE
  8
0
  6
CONTINUOUS
 62
     3
 10
3940.632275
 20
1861.066358
 11
3940.632275
 21
1701.199099
  0
CIRCLE
  8
DELTAWINGS
  6
CONTINUOUS
 62
     3
 10
3613.632275
 20
1640.71614
 40
7.0
  0
LINE
  8
DIMENSIONS
  6
CONTINUOUS
 62
     7
 10
3500.632275
 20
1727.21614
 11
3500.632275
 21
1742.21614
  0
LINE
  8
DIMENSIONS
  6
CONTINUOUS
 62
     7
 10
3493.132275
 20
1734.71614
 11
3508.132275
 21
1734.71614
  0
CIRCLE
  8
DELTAWINGS
  6
CONTINUOUS
 62
     3
 10
3916.632275
 20
1731.62548
 40
3.0
  0
CIRCLE
  8
DELTAWINGS
  6
CONTINUOUS
 62
     3
 10
3613.632275
 20
1838.71614
 40
7.0
  0
CIRCLE
  8
DELTAWINGS
  6
CONTINUOUS
 62
     3
 10
3916.632275
 20
1761.62548
 40
3.0
  0
CIRCLE
  8
DELTAWINGS
  6
CONTINUOUS
 62
     3
 10
3916.632275
 20
1791.62548
 40
3.0
  0
CIRCLE
  8
DELTAWINGS
  6
CONTINUOUS
 62
     3
 10
3916.632275
 20
1821.62548
 40
3.0
  0
CIRCLE
  8
DELTAWINGS
  6
CONTINUOUS
 62
     3
 10
3916.632275
 20
1851.62548
 40
3.0
  0
CIRCLE
  8
DELTAWINGS
  6
CONTINUOUS
 62
     3
 10
3916.632275
 20
1881.62548
 40
3.0
  0
CIRCLE
  8
DELTAWINGS
  6
CONTINUOUS
 62
     3
 10
3984.632275
 20
1791.62548
 40
3.0
  0
CIRCLE
  8
DELTAWINGS
  6
CONTINUOUS
 62
     3
 10
3984.632275
 20
1821.62548
 40
3.0
  0
CIRCLE
  8
DELTAWINGS
  6
CONTINUOUS
 62
     3
 10
3984.632275
 20
1851.62548
 40
3.0
  0
CIRCLE
  8
DELTAWINGS
  6
CONTINUOUS
 62
     3
 10
3984.632275
 20
1881.62548
 40
3.0
  0
ARC
  8
DELTAWINGS
  6
CONTINUOUS
 62
     3
 10
4003.632275
 20
1865.734443
 40
5.0
 50
180.0
 51
322.917482
  0
LINE
  8
0
  6
CONTINUOUS
 62
     3
 10
3940.632275
 20
1861.066358
 11
3960.632275
 21
1861.066358
  0
LINE
  8
0
  6
CONTINUOUS
 62
     7
 10
3084.632275
 20
1934.12548
 11
3084.632275
 21
1949.12548
  0
LINE
  8
DELTAWINGBRACKET
  6
CONTINUOUS
 62
     1
 10
3002.532275
 20
1986.62548
 11
3040.632275
 21
1986.62548
  0
CIRCLE
  8
DELTAWINGS
  6
CONTINUOUS
 62
     3
 10
3084.632275
 20
1911.62548
 40
3.0
  0
CIRCLE
  8
DELTAWINGS
  6
CONTINUOUS
 62
     3
 10
3084.632275
 20
1941.62548
 40
3.0
  0
CIRCLE
  8
DELTAWINGS
  6
CONTINUOUS
 62
     3
 10
3016.632275
 20
1911.62548
 40
3.0
  0
CIRCLE
  8
DELTAWINGS
  6
CONTINUOUS
 62
     3
 10
3016.632275
 20
1941.62548
 40
3.0
  0
CIRCLE
  8
DELTAWINGS
  6
CONTINUOUS
 62
     3
 10
3016.632275
 20
1971.62548
 40
3.0
  0
ARC
  8
DELTAWINGS
  6
CONTINUOUS
 62
     3
 10
2997.632275
 20
1969.647751
 40
5.0
 50
0.0
 51
60.802675
  0
ARC
  8
DELTAWINGS
  6
CONTINUOUS
 62
     3
 10
2861.665665
 20
2045.628589
 40
5.0
 50
60.802675
 51
217.082518
  0
LINE
  8
DELTAWINGS
  6
CONTINUOUS
 62
     3
 10
2864.104759
 20
2049.993314
 11
3000.07137
 21
1974.012475
  0
ARC
  8
DELTAWINGS
  6
CONTINUOUS
 62
     3
 10
3103.632275
 20
1910.412848
 40
5.0
 50
60.802675
 51
180.0
  0
CIRCLE
  8
DELTAWINGS
  6
CONTINUOUS
 62
     3
 10
2818.303746
 20
2130.71614
 40
7.0
  0
CIRCLE
  8
DELTAWINGS
  6
CONTINUOUS
 62
     3
 10
2778.303719
 20
2130.71614
 40
7.0
  0
CIRCLE
  8
DELTAWINGS
  6
CONTINUOUS
 62
     3
 10
2818.303746
 20
2171.71614
 40
7.0
  0
CIRCLE
  8
DELTAWINGS
  6
CONTINUOUS
 62
     3
 10
2778.303719
 20
2171.71614
 40
7.0
  0
LINE
  8
DELTAWINGS
  6
CONTINUOUS
 62
     3
 10
2856.301446
 20
2188.71614
 11
2756.303719
 21
2188.71614
  0
LINE
  8
DELTAWINGS
  6
CONTINUOUS
 62
     3
 10
2856.301446
 20
2177.09304
 11
2856.301446
 21
2188.71614
  0
LINE
  8
DELTAWINGS
  6
CONTINUOUS
 62
     3
 10
2756.303719
 20
2188.71614
 11
2756.303719
 21
2093.71614
  0
TEXT
  8
0
  6
CONTINUOUS
 62
     7
 10
3499.696711
 20
1932.93
 40
20.0
  1
L
  7
isocp
  0
TEXT
  8
0
  6
CONTINUOUS
 62
     7
 10
3493.616711
 20
1940.19
 40
20.0
  1
C
  7
isocp
  0
CIRCLE
  8
DELTAWINGS
  6
CONTINUOUS
 62
     3
 10
3916.632275
 20
1911.62548
 40
3.0
  0
CIRCLE
  8
DELTAWINGS
  6
CONTINUOUS
 62
     3
 10
3916.632275
 20
1941.62548
 40
3.0
  0
CIRCLE
  8
DELTAWINGS
  6
CONTINUOUS
 62
     3
 10
3984.632275
 20
1911.62548
 40
3.0
  0
CIRCLE
  8
DELTAWINGS
  6
CONTINUOUS
 62
     3
 10
3984.632275
 20
1941.62548
 40
3.0
  0
CIRCLE
  8
DELTAWINGS
  6
CONTINUOUS
 62
     3
 10
3984.632275
 20
1971.62548
 40
3.0
  0
ARC
  8
DELTAWINGS
  6
CONTINUOUS
 62
     3
 10
4139.598886
 20
2045.628589
 40
5.0
 50
322.917482
 51
119.197325
  0
LINE
  8
DELTAWINGS
  6
CONTINUOUS
 62
     3
 10
4137.159791
 20
2049.993314
 11
4001.193181
 21
1974.012475
  0
ARC
  8
DELTAWINGS
  6
CONTINUOUS
 62
     3
 10
4003.632275
 20
1969.647751
 40
5.0
 50
119.197325
 51
180.0
  0
LINE
  8
DELTAWINGS
  6
CONTINUOUS
 62
     3
 10
4244.960832
 20
2188.71614
 11
4244.960832
 21
2093.71614
  0
ARC
  8
DELTAWINGS
  6
CONTINUOUS
 62
     3
 10
3118.632275
 20
1720.628202
 40
20.0
 50
180.0
 51
327.032481
  0
ARC
  8
DELTAWINGS
  6
CONTINUOUS
 62
     3
 10
3218.112345
 20
1846.439115
 40
5.0
 50
327.032481
 51
60.802675
  0
ARC
  8
DELTAWINGS
  6
CONTINUOUS
 62
     3
 10
3291.952918
 20
1770.063576
 40
40.0
 50
0.0
 51
147.032481
  0
LINE
  8
DELTAWINGS
  6
CONTINUOUS
 62
     3
 10
3182.394678
 20
1660.468023
 11
3326.952918
 21
1660.468023
  0
LINE
  8
DELTAWINGS
  6
CONTINUOUS
 62
     3
 10
3185.275644
 20
1622.468023
 11
3326.952918
 21
1622.468023
  0
ARC
  8
DELTAWINGS
  6
CONTINUOUS
 62
     3
 10
3182.394678
 20
1665.468023
 40
5.0
 50
147.032481
 51
270.0
  0
LINE
  8
DELTAWINGS
  6
CONTINUOUS
 62
     3
 10
3331.952918
 20
1617.468023
 11
3331.952918
 21
1430.018234
  0
ARC
  8
DELTAWINGS
  6
CONTINUOUS
 62
     3
 10
3326.952918
 20
1617.468023
 40
5.0
 50
0.0
 51
90.0
  0
ARC
  8
DELTAWINGS
  6
CONTINUOUS
 62
     3
 10
3326.952918
 20
1665.468023
 40
5.0
 50
270.0
 51
360.0
  0
ARC
  8
DELTAWINGS
  6
CONTINUOUS
 62
     3
 10
3185.275644
 20
1617.468023
 40
5.0
 50
90.0
 51
217.082518
  0
ARC
  8
DELTAWINGS
  6
CONTINUOUS
 62
     3
 10
3709.311632
 20
1770.063576
 40
40.0
 50
32.967519
 51
180.0
  0
LINE
  8
DELTAWINGS
  6
CONTINUOUS
 62
     3
 10
3823.064769
 20
1668.18884
 11
3742.8708
 21
1791.830117
  0
LINE
  8
DELTAWINGS
  6
CONTINUOUS
 62
     3
 10
3669.311632
 20
1770.063576
 11
3669.311632
 21
1665.468023
  0
LINE
  8
DELTAWINGS
  6
CONTINUOUS
 62
     3
 10
3815.988907
 20
1622.468023
 11
3674.311632
 21
1622.468023
  0
LINE
  8
DELTAWINGS
  6
CONTINUOUS
 62
     3
 10
3818.869873
 20
1660.468023
 11
3674.311632
 21
1660.468023
  0
ARC
  8
DELTAWINGS
  6
CONTINUOUS
 62
     3
 10
3815.988907
 20
1617.468023
 40
5.0
 50
322.917482
 51
90.0
  0
ARC
  8
DELTAWINGS
  6
CONTINUOUS
 62
     3
 10
3818.869873
 20
1665.468023
 40
5.0
 50
270.0
 51
32.967519
  0
ARC
  8
DELTAWINGS
  6
CONTINUOUS
 62
     3
 10
3674.311632
 20
1665.468023
 40
5.0
 50
180.0
 51
270.0
  0
ARC
  8
DELTAWINGS
  6
CONTINUOUS
 62
     3
 10
3674.311632
 20
1617.468023
 40
5.0
 50
90.0
 51
180.0
  0
LINE
  8
DELTAWINGS
  6
CONTINUOUS
 62
     3
 10
3669.311632
 20
1617.468023
 11
3669.311632
 21
1430.018234
  0
LINE
  8
DELTAWINGS
  6
CONTINUOUS
 62
     3
 10
3819.977746
 20
1614.4532
 11
3678.300472
 21
1427.003411
  0
ARC
  8
DELTAWINGS
  6
CONTINUOUS
 62
     3
 10
3674.311632
 20
1430.018234
 40
5.0
 50
180.0
 51
322.917482
  0
LINE
  8
0
  6
CONTINUOUS
 62
     3
 10
3902.632275
 20
1910.412848
 11
3902.632275
 21
1720.628202
  0
LINE
  8
DELTAWINGS
  6
CONTINUOUS
 62
     3
 10
3895.193181
 20
1914.777573
 11
3780.713111
 21
1850.803839
  0
LINE
  8
DELTAWINGS
  6
CONTINUOUS
 62
     3
 10
3865.852691
 20
1709.744932
 11
3778.95731
 21
1843.718298
  0
ARC
  8
DELTAWINGS
  6
CONTINUOUS
 62
     3
 10
3882.632275
 20
1720.628202
 40
20.0
 50
212.967519
 51
0.0
  0
ARC
  8
DELTAWINGS
  6
CONTINUOUS
 62
     3
 10
3897.632275
 20
1910.412848
 40
5.0
 50
0.0
 51
119.197325
  0
ARC
  8
DELTAWINGS
  6
CONTINUOUS
 62
     3
 10
3783.152206
 20
1846.439115
 40
5.0
 50
119.197325
 51
212.967519
  0
CIRCLE
  8
DELTAWINGS
  6
CONTINUOUS
 62
     3
 10
4222.960832
 20
2171.71614
 40
7.0
  0
CIRCLE
  8
DELTAWINGS
  6
CONTINUOUS
 62
     3
 10
4222.960832
 20
2130.71614
 40
7.0
  0
CIRCLE
  8
DELTAWINGS
  6
CONTINUOUS
 62
     3
 10
4182.960804
 20
2171.71614
 40
7.0
  0
CIRCLE
  8
DELTAWINGS
  6
CONTINUOUS
 62
     3
 10
4182.960804
 20
2130.71614
 40
7.0
  0
LINE
  8
DELTAWINGS
  6
CONTINUOUS
 62
     3
 10
2756.303719
 20
2093.71614
 11
3040.632275
 21
1726.994709
  0
LINE
  8
DELTAWINGS
  6
CONTINUOUS
 62
     3
 10
4244.960832
 20
2093.71614
 11
3960.632275
 21
1726.994709
  0
ARC
  8
DELTAWINGS
  6
CONTINUOUS
 62
     3
 10
2991.301446
 20
2177.09304
 40
135.0
 50
180.0
 51
240.802675
  0
LINE
  8
DELTAWINGS
  6
CONTINUOUS
 62
     3
 10
4144.963104
 20
2188.71614
 11
4244.960832
 21
2188.71614
  0
ARC
  8
DELTAWINGS
  6
CONTINUOUS
 62
     3
 10
4009.963104
 20
2177.09304
 40
135.0
 50
299.197325
 51
0.0
  0
LINE
  8
DELTAWINGS
  6
CONTINUOUS
 62
     3
 10
4144.963104
 20
2177.09304
 11
4144.963104
 21
2188.71614
  0
LINE
  8
DELTAWINGS
  6
CONTINUOUS
 62
     3
 10
2474.182101
 20
2188.71614
 11
2474.182101
 21
1318.96614
  0
LINE
  8
DELTAWINGS
  6
CONTINUOUS
 62
     3
 10
2494.182101
 20
1318.96614
 11
2474.182101
 21
1318.96614
  0
LINE
  8
DELTAWINGS
  6
CONTINUOUS
 62
     3
 10
2494.182101
 20
2188.71614
 11
2494.182101
 21
1318.96614
  0
LINE
  8
DELTAWINGS
  6
CONTINUOUS
 62
     3
 10
2474.182101
 20
2188.71614
 11
2494.182101
 21
2188.71614
  0
LINE
  8
DELTAWINGS
  6
CONTINUOUS
 62
     3
 10
3060.632275
 20
1701.199099
 11
3356.987319
 21
1318.96614
  0
LINE
  8
DELTAWINGS
  6
CONTINUOUS
 62
     3
 10
3940.632275
 20
1701.199099
 11
3644.277231
 21
1318.96614
  0
LINE
  8
DELTAWINGS
  6
CONTINUOUS
 62
     3
 10
4085.818656
 20
2064.833683
 11
3731.290181
 21
1876.71614
  0
LINE
  8
DELTAWINGS
  6
CONTINUOUS
 62
     3
 10
2925.445895
 20
2059.245484
 11
3269.97437
 21
1876.71614
  0
LINE
  8
LAYER01
  6
CONTINUOUS
 62
     3
 10
3269.97437
 20
1876.71614
 11
3731.290181
 21
1876.71614
  0
LINE
  8
LAYER01
  6
CONTINUOUS
 62
     7
 10
3060.632275
 20
1956.62548
 11
3098.732275
 21
1956.62548
  0
LINE
  8
DELTAWINGS
  6
CONTINUOUS
 62
     3
 10
-74.675028
 20
2043.589884
 11
61.291582
 21
1863.695737
  0
LINE
  8
0
  6
CONTINUOUS
 62
     3
 10
70.280422
 20
1970.623868
 11
70.280422
 21
1866.71056
  0
ARC
  8
DELTAWINGS
  6
CONTINUOUS
 62
     3
 10
65.280422
 20
1866.71056
 40
5.0
 50
217.082518
 51
0.0
  0
LINE
  8
DELTAWINGS
  6
CONTINUOUS
 62
     3
 10
-6.905959
 20
2060.221602
 11
202.594002
 21
1943.148869
  0
POLYLINE
  8
DELTAWINGBRACKET
  6
CONTINUOUS
 62
     1
 66
     1
  0
VERTEX
  8
0
 10
91.910729
 20
2180.689609
  0
VERTEX
  8
0
 10
91.632729
 20
2180.679609
  0
VERTEX
  8
0
 10
91.355729
 20
2180.649609
  0
VERTEX
  8
0
 10
91.080729
 20
2180.609609
  0
VERTEX
  8
0
 10
90.806729
 20
2180.539609
  0
VERTEX
  8
0
 10
90.535729
 20
2180.449609
  0
VERTEX
  8
0
 10
90.268729
 20
2180.349609
  0
VERTEX
  8
0
 10
90.004729
 20
2180.229609
  0
VERTEX
  8
0
 10
89.745729
 20
2180.079609
  0
VERTEX
  8
0
 10
89.491729
 20
2179.919609
  0
VERTEX
  8
0
 10
89.243729
 20
2179.749609
  0
VERTEX
  8
0
 10
89.002729
 20
2179.549609
  0
VERTEX
  8
0
 10
88.767729
 20
2179.339609
  0
VERTEX
  8
0
 10
88.540729
 20
2179.119609
  0
VERTEX
  8
0
 10
88.321729
 20
2178.879609
  0
VERTEX
  8
0
 10
88.111729
 20
2178.619609
  0
VERTEX
  8
0
 10
87.910729
 20
2178.349609
  0
VERTEX
  8
0
 10
87.718729
 20
2178.069609
  0
VERTEX
  8
0
 10
87.537729
 20
2177.769609
  0
VERTEX
  8
0
 10
87.366729
 20
2177.459609
  0
VERTEX
  8
0
 10
87.206729
 20
2177.139609
  0
VERTEX
  8
0
 10
87.058729
 20
2176.809609
  0
VERTEX
  8
0
 10
86.921729
 20
2176.459609
  0
VERTEX
  8
0
 10
86.796729
 20
2176.109609
  0
VERTEX
  8
0
 10
86.684729
 20
2175.749609
  0
VERTEX
  8
0
 10
86.584729
 20
2175.389609
  0
VERTEX
  8
0
 10
86.497729
 20
2175.009609
  0
VERTEX
  8
0
 10
86.423729
 20
2174.639609
  0
VERTEX
  8
0
 10
86.362729
 20
2174.249609
  0
VERTEX
  8
0
 10
86.314729
 20
2173.869609
  0
VERTEX
  8
0
 10
86.280729
 20
2173.479609
  0
VERTEX
  8
0
 10
86.260729
 20
2173.089609
  0
VERTEX
  8
0
 10
86.253729
 20
2172.689609
  0
VERTEX
  8
0
 10
86.260729
 20
2172.299609
  0
VERTEX
  8
0
 10
86.280729
 20
2171.909609
  0
VERTEX
  8
0
 10
86.314729
 20
2171.519609
  0
VERTEX
  8
0
 10
86.362729
 20
2171.129609
  0
VERTEX
  8
0
 10
86.423729
 20
2170.749609
  0
VERTEX
  8
0
 10
86.497729
 20
2170.369609
  0
VERTEX
  8
0
 10
86.584729
 20
2169.999609
  0
VERTEX
  8
0
 10
86.684729
 20
2169.629609
  0
VERTEX
  8
0
 10
86.796729
 20
2169.269609
  0
VERTEX
  8
0
 10
86.921729
 20
2168.919609
  0
VERTEX
  8
0
 10
87.058729
 20
2168.579609
  0
VERTEX
  8
0
 10
87.206729
 20
2168.249609
  0
VERTEX
  8
0
 10
87.366729
 20
2167.929609
  0
VERTEX
  8
0
 10
87.537729
 20
2167.619609
  0
VERTEX
  8
0
 10
87.718729
 20
2167.319609
  0
VERTEX
  8
0
 10
87.910729
 20
2167.039609
  0
VERTEX
  8
0
 10
88.111729
 20
2166.769609
  0
VERTEX
  8
0
 10
88.321729
 20
2166.509609
  0
VERTEX
  8
0
 10
88.540729
 20
2166.269609
  0
VERTEX
  8
0
 10
88.767729
 20
2166.039609
  0
VERTEX
  8
0
 10
89.002729
 20
2165.829609
  0
VERTEX
  8
0
 10
89.243729
 20
2165.639609
  0
VERTEX
  8
0
 10
89.491729
 20
2165.459609
  0
VERTEX
  8
0
 10
89.745729
 20
2165.299609
  0
VERTEX
  8
0
 10
90.004729
 20
2165.159609
  0
VERTEX
  8
0
 10
90.268729
 20
2165.039609
  0
VERTEX
  8
0
 10
90.535729
 20
2164.929609
  0
VERTEX
  8
0
 10
90.806729
 20
2164.849609
  0
VERTEX
  8
0
 10
91.080729
 20
2164.779609
  0
VERTEX
  8
0
 10
91.355729
 20
2164.729609
  0
VERTEX
  8
0
 10
91.632729
 20
2164.699609
  0
VERTEX
  8
0
 10
91.910729
 20
2164.689609
  0
VERTEX
  8
0
 10
92.187729
 20
2164.699609
  0
VERTEX
  8
0
 10
92.464729
 20
2164.729609
  0
VERTEX
  8
0
 10
92.740729
 20
2164.779609
  0
VERTEX
  8
0
 10
93.013729
 20
2164.849609
  0
VERTEX
  8
0
 10
93.284729
 20
2164.929609
  0
VERTEX
  8
0
 10
93.552729
 20
2165.039609
  0
VERTEX
  8
0
 10
93.816729
 20
2165.159609
  0
VERTEX
  8
0
 10
94.075729
 20
2165.299609
  0
VERTEX
  8
0
 10
94.329729
 20
2165.459609
  0
VERTEX
  8
0
 10
94.577729
 20
2165.639609
  0
VERTEX
  8
0
 10
94.818729
 20
2165.829609
  0
VERTEX
  8
0
 10
95.053729
 20
2166.039609
  0
VERTEX
  8
0
 10
95.280729
 20
2166.269609
  0
VERTEX
  8
0
 10
95.499729
 20
2166.509609
  0
VERTEX
  8
0
 10
95.709729
 20
2166.769609
  0
VERTEX
  8
0
 10
95.910729
 20
2167.039609
  0
VERTEX
  8
0
 10
96.101729
 20
2167.319609
  0
VERTEX
  8
0
 10
96.283729
 20
2167.619609
  0
VERTEX
  8
0
 10
96.454729
 20
2167.929609
  0
VERTEX
  8
0
 10
96.613729
 20
2168.249609
  0
VERTEX
  8
0
 10
96.762729
 20
2168.579609
  0
VERTEX
  8
0
 10
96.899729
 20
2168.919609
  0
VERTEX
  8
0
 10
97.024729
 20
2169.269609
  0
VERTEX
  8
0
 10
97.136729
 20
2169.629609
  0
VERTEX
  8
0
 10
97.236729
 20
2169.999609
  0
VERTEX
  8
0
 10
97.323729
 20
2170.369609
  0
VERTEX
  8
0
 10
97.397729
 20
2170.749609
  0
VERTEX
  8
0
 10
97.458729
 20
2171.129609
  0
VERTEX
  8
0
 10
97.506729
 20
2171.519609
  0
VERTEX
  8
0
 10
97.540729
 20
2171.909609
  0
VERTEX
  8
0
 10
97.560729
 20
2172.299609
  0
VERTEX
  8
0
 10
97.567729
 20
2172.689609
  0
VERTEX
  8
0
 10
97.560729
 20
2173.089609
  0
VERTEX
  8
0
 10
97.540729
 20
2173.479609
  0
VERTEX
  8
0
 10
97.506729
 20
2173.869609
  0
VERTEX
  8
0
 10
97.458729
 20
2174.249609
  0
VERTEX
  8
0
 10
97.397729
 20
2174.639609
  0
VERTEX
  8
0
 10
97.323729
 20
2175.009609
  0
VERTEX
  8
0
 10
97.236729
 20
2175.389609
  0
VERTEX
  8
0
 10
97.136729
 20
2175.749609
  0
VERTEX
  8
0
 10
97.024729
 20
2176.109609
  0
VERTEX
  8
0
 10
96.899729
 20
2176.459609
  0
VERTEX
  8
0
 10
96.762729
 20
2176.809609
  0
VERTEX
  8
0
 10
96.613729
 20
2177.139609
  0
VERTEX
  8
0
 10
96.454729
 20
2177.459609
  0
VERTEX
  8
0
 10
96.283729
 20
2177.769609
  0
VERTEX
  8
0
 10
96.101729
 20
2178.069609
  0
VERTEX
  8
0
 10
95.910729
 20
2178.349609
  0
VERTEX
  8
0
 10
95.709729
 20
2178.619609
  0
VERTEX
  8
0
 10
95.499729
 20
2178.879609
  0
VERTEX
  8
0
 10
95.280729
 20
2179.119609
  0
VERTEX
  8
0
 10
95.053729
 20
2179.339609
  0
VERTEX
  8
0
 10
94.818729
 20
2179.549609
  0
VERTEX
  8
0
 10
94.577729
 20
2179.749609
  0
VERTEX
  8
0
 10
94.329729
 20
2179.919609
  0
VERTEX
  8
0
 10
94.075729
 20
2180.079609
  0
VERTEX
  8
0
 10
93.816729
 20
2180.229609
  0
VERTEX
  8
0
 10
93.552729
 20
2180.349609
  0
VERTEX
  8
0
 10
93.284729
 20
2180.449609
  0
VERTEX
  8
0
 10
93.013729
 20
2180.539609
  0
VERTEX
  8
0
 10
92.740729
 20
2180.609609
  0
VERTEX
  8
0
 10
92.464729
 20
2180.649609
  0
VERTEX
  8
0
 10
92.187729
 20
2180.679609
  0
VERTEX
  8
0
 10
91.910729
 20
2180.689609
  0
SEQEND
  8
0
  0
POLYLINE
  8
DELTAWINGBRACKET
  6
CONTINUOUS
 62
     1
 66
     1
  0
VERTEX
  8
0
 10
91.910729
 20
2139.689609
  0
VERTEX
  8
0
 10
91.632729
 20
2139.679609
  0
VERTEX
  8
0
 10
91.355729
 20
2139.649609
  0
VERTEX
  8
0
 10
91.080729
 20
2139.609609
  0
VERTEX
  8
0
 10
90.806729
 20
2139.539609
  0
VERTEX
  8
0
 10
90.535729
 20
2139.449609
  0
VERTEX
  8
0
 10
90.268729
 20
2139.349609
  0
VERTEX
  8
0
 10
90.004729
 20
2139.229609
  0
VERTEX
  8
0
 10
89.745729
 20
2139.079609
  0
VERTEX
  8
0
 10
89.491729
 20
2138.919609
  0
VERTEX
  8
0
 10
89.243729
 20
2138.749609
  0
VERTEX
  8
0
 10
89.002729
 20
2138.549609
  0
VERTEX
  8
0
 10
88.767729
 20
2138.339609
  0
VERTEX
  8
0
 10
88.540729
 20
2138.119609
  0
VERTEX
  8
0
 10
88.321729
 20
2137.879609
  0
VERTEX
  8
0
 10
88.111729
 20
2137.619609
  0
VERTEX
  8
0
 10
87.910729
 20
2137.349609
  0
VERTEX
  8
0
 10
87.718729
 20
2137.069609
  0
VERTEX
  8
0
 10
87.537729
 20
2136.769609
  0
VERTEX
  8
0
 10
87.366729
 20
2136.459609
  0
VERTEX
  8
0
 10
87.206729
 20
2136.139609
  0
VERTEX
  8
0
 10
87.058729
 20
2135.809609
  0
VERTEX
  8
0
 10
86.921729
 20
2135.459609
  0
VERTEX
  8
0
 10
86.796729
 20
2135.109609
  0
VERTEX
  8
0
 10
86.684729
 20
2134.749609
  0
VERTEX
  8
0
 10
86.584729
 20
2134.389609
  0
VERTEX
  8
0
 10
86.497729
 20
2134.009609
  0
VERTEX
  8
0
 10
86.423729
 20
2133.639609
  0
VERTEX
  8
0
 10
86.362729
 20
2133.249609
  0
VERTEX
  8
0
 10
86.314729
 20
2132.869609
  0
VERTEX
  8
0
 10
86.280729
 20
2132.479609
  0
VERTEX
  8
0
 10
86.260729
 20
2132.089609
  0
VERTEX
  8
0
 10
86.253729
 20
2131.689609
  0
VERTEX
  8
0
 10
86.260729
 20
2131.299609
  0
VERTEX
  8
0
 10
86.280729
 20
2130.909609
  0
VERTEX
  8
0
 10
86.314729
 20
2130.519609
  0
VERTEX
  8
0
 10
86.362729
 20
2130.129609
  0
VERTEX
  8
0
 10
86.423729
 20
2129.749609
  0
VERTEX
  8
0
 10
86.497729
 20
2129.369609
  0
VERTEX
  8
0
 10
86.584729
 20
2128.999609
  0
VERTEX
  8
0
 10
86.684729
 20
2128.629609
  0
VERTEX
  8
0
 10
86.796729
 20
2128.269609
  0
VERTEX
  8
0
 10
86.921729
 20
2127.919609
  0
VERTEX
  8
0
 10
87.058729
 20
2127.579609
  0
VERTEX
  8
0
 10
87.206729
 20
2127.249609
  0
VERTEX
  8
0
 10
87.366729
 20
2126.929609
  0
VERTEX
  8
0
 10
87.537729
 20
2126.619609
  0
VERTEX
  8
0
 10
87.718729
 20
2126.319609
  0
VERTEX
  8
0
 10
87.910729
 20
2126.039609
  0
VERTEX
  8
0
 10
88.111729
 20
2125.769609
  0
VERTEX
  8
0
 10
88.321729
 20
2125.509609
  0
VERTEX
  8
0
 10
88.540729
 20
2125.269609
  0
VERTEX
  8
0
 10
88.767729
 20
2125.039609
  0
VERTEX
  8
0
 10
89.002729
 20
2124.829609
  0
VERTEX
  8
0
 10
89.243729
 20
2124.639609
  0
VERTEX
  8
0
 10
89.491729
 20
2124.459609
  0
VERTEX
  8
0
 10
89.745729
 20
2124.299609
  0
VERTEX
  8
0
 10
90.004729
 20
2124.159609
  0
VERTEX
  8
0
 10
90.268729
 20
2124.039609
  0
VERTEX
  8
0
 10
90.535729
 20
2123.929609
  0
VERTEX
  8
0
 10
90.806729
 20
2123.849609
  0
VERTEX
  8
0
 10
91.080729
 20
2123.779609
  0
VERTEX
  8
0
 10
91.355729
 20
2123.729609
  0
VERTEX
  8
0
 10
91.632729
 20
2123.699609
  0
VERTEX
  8
0
 10
91.910729
 20
2123.689609
  0
VERTEX
  8
0
 10
92.187729
 20
2123.699609
  0
VERTEX
  8
0
 10
92.464729
 20
2123.729609
  0
VERTEX
  8
0
 10
92.740729
 20
2123.779609
  0
VERTEX
  8
0
 10
93.013729
 20
2123.849609
  0
VERTEX
  8
0
 10
93.284729
 20
2123.929609
  0
VERTEX
  8
0
 10
93.552729
 20
2124.039609
  0
VERTEX
  8
0
 10
93.816729
 20
2124.159609
  0
VERTEX
  8
0
 10
94.075729
 20
2124.299609
  0
VERTEX
  8
0
 10
94.329729
 20
2124.459609
  0
VERTEX
  8
0
 10
94.577729
 20
2124.639609
  0
VERTEX
  8
0
 10
94.818729
 20
2124.829609
  0
VERTEX
  8
0
 10
95.053729
 20
2125.039609
  0
VERTEX
  8
0
 10
95.280729
 20
2125.269609
  0
VERTEX
  8
0
 10
95.499729
 20
2125.509609
  0
VERTEX
  8
0
 10
95.709729
 20
2125.769609
  0
VERTEX
  8
0
 10
95.910729
 20
2126.039609
  0
VERTEX
  8
0
 10
96.101729
 20
2126.319609
  0
VERTEX
  8
0
 10
96.283729
 20
2126.619609
  0
VERTEX
  8
0
 10
96.454729
 20
2126.929609
  0
VERTEX
  8
0
 10
96.613729
 20
2127.249609
  0
VERTEX
  8
0
 10
96.762729
 20
2127.579609
  0
VERTEX
  8
0
 10
96.899729
 20
2127.919609
  0
VERTEX
  8
0
 10
97.024729
 20
2128.269609
  0
VERTEX
  8
0
 10
97.136729
 20
2128.629609
  0
VERTEX
  8
0
 10
97.236729
 20
2128.999609
  0
VERTEX
  8
0
 10
97.323729
 20
2129.369609
  0
VERTEX
  8
0
 10
97.397729
 20
2129.749609
  0
VERTEX
  8
0
 10
97.458729
 20
2130.129609
  0
VERTEX
  8
0
 10
97.506729
 20
2130.519609
  0
VERTEX
  8
0
 10
97.540729
 20
2130.909609
  0
VERTEX
  8
0
 10
97.560729
 20
2131.299609
  0
VERTEX
  8
0
 10
97.567729
 20
2131.689609
  0
VERTEX
  8
0
 10
97.560729
 20
2132.089609
  0
VERTEX
  8
0
 10
97.540729
 20
2132.479609
  0
VERTEX
  8
0
 10
97.506729
 20
2132.869609
  0
VERTEX
  8
0
 10
97.458729
 20
2133.249609
  0
VERTEX
  8
0
 10
97.397729
 20
2133.639609
  0
VERTEX
  8
0
 10
97.323729
 20
2134.009609
  0
VERTEX
  8
0
 10
97.236729
 20
2134.389609
  0
VERTEX
  8
0
 10
97.136729
 20
2134.749609
  0
VERTEX
  8
0
 10
97.024729
 20
2135.109609
  0
VERTEX
  8
0
 10
96.899729
 20
2135.459609
  0
VERTEX
  8
0
 10
96.762729
 20
2135.809609
  0
VERTEX
  8
0
 10
96.613729
 20
2136.139609
  0
VERTEX
  8
0
 10
96.454729
 20
2136.459609
  0
VERTEX
  8
0
 10
96.283729
 20
2136.769609
  0
VERTEX
  8
0
 10
96.101729
 20
2137.069609
  0
VERTEX
  8
0
 10
95.910729
 20
2137.349609
  0
VERTEX
  8
0
 10
95.709729
 20
2137.619609
  0
VERTEX
  8
0
 10
95.499729
 20
2137.879609
  0
VERTEX
  8
0
 10
95.280729
 20
2138.119609
  0
VERTEX
  8
0
 10
95.053729
 20
2138.339609
  0
VERTEX
  8
0
 10
94.818729
 20
2138.549609
  0
VERTEX
  8
0
 10
94.577729
 20
2138.749609
  0
VERTEX
  8
0
 10
94.329729
 20
2138.919609
  0
VERTEX
  8
0
 10
94.075729
 20
2139.079609
  0
VERTEX
  8
0
 10
93.816729
 20
2139.229609
  0
VERTEX
  8
0
 10
93.552729
 20
2139.349609
  0
VERTEX
  8
0
 10
93.284729
 20
2139.449609
  0
VERTEX
  8
0
 10
93.013729
 20
2139.539609
  0
VERTEX
  8
0
 10
92.740729
 20
2139.609609
  0
VERTEX
  8
0
 10
92.464729
 20
2139.649609
  0
VERTEX
  8
0
 10
92.187729
 20
2139.679609
  0
VERTEX
  8
0
 10
91.910729
 20
2139.689609
  0
SEQEND
  8
0
  0
LINE
  8
DELTAWINGBRACKET
  6
CONTINUOUS
 62
     1
 10
-87.093747
 20
2189.692257
 11
-87.093747
 21
2114.692257
  0
LINE
  8
DELTAWINGBRACKET
  6
CONTINUOUS
 62
     7
 10
-115.478597
 20
2172.692257
 11
-112.617618
 21
2172.692257
  0
POLYLINE
  8
DELTAWINGBRACKET
  6
CONTINUOUS
 62
     7
 66
     1
 70
     1
  0
VERTEX
  8
0
 10
-116.179862
 20
2176.384565
  0
VERTEX
  8
0
 10
-118.311617
 20
2172.692257
  0
VERTEX
  8
0
 10
-116.179862
 20
2168.999949
  0
VERTEX
  8
0
 10
-111.916353
 20
2168.999949
  0
VERTEX
  8
0
 10
-109.784598
 20
2172.692257
  0
VERTEX
  8
0
 10
-111.916353
 20
2176.384565
  0
SEQEND
  8
0
  0
LINE
  8
DELTAWINGBRACKET
  6
CONTINUOUS
 62
     7
 10
-114.048108
 20
2162.213065
 11
-114.048108
 21
2169.899422
  0
LINE
  8
DELTAWINGBRACKET
  6
CONTINUOUS
 62
     7
 10
-114.048108
 20
2183.171449
 11
-114.048108
 21
2175.485092
  0
LINE
  8
DELTAWINGBRACKET
  6
CONTINUOUS
 62
     7
 10
-114.048108
 20
2171.261768
 11
-114.048108
 21
2174.122747
  0
LINE
  8
DELTAWINGBRACKET
  6
CONTINUOUS
 62
     7
 10
-124.527299
 20
2172.692257
 11
-116.840942
 21
2172.692257
  0
CIRCLE
  8
DELTAWINGBRACKET
  6
CONTINUOUS
 62
     7
 10
-114.048108
 20
2172.692257
 40
6.769231
  0
CIRCLE
  8
DELTAWINGBRACKET
  6
CONTINUOUS
 62
     7
 10
-114.048108
 20
2172.692257
 40
8.0
  0
LINE
  8
DELTAWINGBRACKET
  6
CONTINUOUS
 62
     7
 10
-111.255273
 20
2172.692257
 11
-103.568916
 21
2172.692257
  0
LINE
  8
DELTAWINGBRACKET
  6
CONTINUOUS
 62
     7
 10
-115.478597
 20
2131.692257
 11
-112.617618
 21
2131.692257
  0
POLYLINE
  8
DELTAWINGBRACKET
  6
CONTINUOUS
 62
     7
 66
     1
 70
     1
  0
VERTEX
  8
0
 10
-116.179862
 20
2135.384565
  0
VERTEX
  8
0
 10
-118.311617
 20
2131.692257
  0
VERTEX
  8
0
 10
-116.179862
 20
2127.999949
  0
VERTEX
  8
0
 10
-111.916353
 20
2127.999949
  0
VERTEX
  8
0
 10
-109.784598
 20
2131.692257
  0
VERTEX
  8
0
 10
-111.916353
 20
2135.384565
  0
SEQEND
  8
0
  0
LINE
  8
DELTAWINGBRACKET
  6
CONTINUOUS
 62
     7
 10
-114.048108
 20
2121.213065
 11
-114.048108
 21
2128.899422
  0
LINE
  8
DELTAWINGBRACKET
  6
CONTINUOUS
 62
     7
 10
-114.048108
 20
2142.171449
 11
-114.048108
 21
2134.485092
  0
LINE
  8
DELTAWINGBRACKET
  6
CONTINUOUS
 62
     7
 10
-114.048108
 20
2130.261768
 11
-114.048108
 21
2133.122747
  0
LINE
  8
DELTAWINGBRACKET
  6
CONTINUOUS
 62
     7
 10
-124.527299
 20
2131.692257
 11
-116.840942
 21
2131.692257
  0
CIRCLE
  8
DELTAWINGBRACKET
  6
CONTINUOUS
 62
     7
 10
-114.048108
 20
2131.692257
 40
6.769231
  0
CIRCLE
  8
DELTAWINGBRACKET
  6
CONTINUOUS
 62
     7
 10
-114.048108
 20
2131.692257
 40
8.0
  0
LINE
  8
DELTAWINGBRACKET
  6
CONTINUOUS
 62
     7
 10
-111.255273
 20
2131.692257
 11
-103.568916
 21
2131.692257
  0
ARC
  8
DELTAWINGS
  6
CONTINUOUS
 62
     3
 10
-70.686189
 20
2046.604707
 40
5.0
 50
60.802675
 51
217.082518
  0
LINE
  8
DELTAWINGS
  6
CONTINUOUS
 62
     3
 10
-68.247094
 20
2050.969431
 11
67.719516
 21
1974.988593
  0
ARC
  8
DELTAWINGS
  6
CONTINUOUS
 62
     3
 10
65.280422
 20
1970.623868
 40
5.0
 50
0.0
 51
60.802675
  0
POLYLINE
  8
DELTAWINGBRACKET
  6
CONTINUOUS
 62
     1
 66
     1
  0
VERTEX
  8
0
 10
-30.069271
 20
2180.689609
  0
VERTEX
  8
0
 10
-30.339271
 20
2180.679609
  0
VERTEX
  8
0
 10
-30.619271
 20
2180.649609
  0
VERTEX
  8
0
 10
-30.899271
 20
2180.609609
  0
VERTEX
  8
0
 10
-31.169271
 20
2180.539609
  0
VERTEX
  8
0
 10
-31.439271
 20
2180.449609
  0
VERTEX
  8
0
 10
-31.709271
 20
2180.349609
  0
VERTEX
  8
0
 10
-31.969271
 20
2180.229609
  0
VERTEX
  8
0
 10
-32.229271
 20
2180.079609
  0
VERTEX
  8
0
 10
-32.479271
 20
2179.919609
  0
VERTEX
  8
0
 10
-32.729271
 20
2179.749609
  0
VERTEX
  8
0
 10
-32.969271
 20
2179.549609
  0
VERTEX
  8
0
 10
-33.209271
 20
2179.339609
  0
VERTEX
  8
0
 10
-33.439271
 20
2179.119609
  0
VERTEX
  8
0
 10
-33.649271
 20
2178.879609
  0
VERTEX
  8
0
 10
-33.859271
 20
2178.619609
  0
VERTEX
  8
0
 10
-34.069271
 20
2178.349609
  0
VERTEX
  8
0
 10
-34.259271
 20
2178.069609
  0
VERTEX
  8
0
 10
-34.439271
 20
2177.769609
  0
VERTEX
  8
0
 10
-34.609271
 20
2177.459609
  0
VERTEX
  8
0
 10
-34.769271
 20
2177.139609
  0
VERTEX
  8
0
 10
-34.919271
 20
2176.809609
  0
VERTEX
  8
0
 10
-35.049271
 20
2176.459609
  0
VERTEX
  8
0
 10
-35.179271
 20
2176.109609
  0
VERTEX
  8
0
 10
-35.289271
 20
2175.749609
  0
VERTEX
  8
0
 10
-35.389271
 20
2175.389609
  0
VERTEX
  8
0
 10
-35.479271
 20
2175.009609
  0
VERTEX
  8
0
 10
-35.549271
 20
2174.639609
  0
VERTEX
  8
0
 10
-35.609271
 20
2174.249609
  0
VERTEX
  8
0
 10
-35.659271
 20
2173.869609
  0
VERTEX
  8
0
 10
-35.699271
 20
2173.479609
  0
VERTEX
  8
0
 10
-35.719271
 20
2173.089609
  0
VERTEX
  8
0
 10
-35.719271
 20
2172.689609
  0
VERTEX
  8
0
 10
-35.719271
 20
2172.299609
  0
VERTEX
  8
0
 10
-35.699271
 20
2171.909609
  0
VERTEX
  8
0
 10
-35.659271
 20
2171.519609
  0
VERTEX
  8
0
 10
-35.609271
 20
2171.129609
  0
VERTEX
  8
0
 10
-35.549271
 20
2170.749609
  0
VERTEX
  8
0
 10
-35.479271
 20
2170.369609
  0
VERTEX
  8
0
 10
-35.389271
 20
2169.999609
  0
VERTEX
  8
0
 10
-35.289271
 20
2169.629609
  0
VERTEX
  8
0
 10
-35.179271
 20
2169.269609
  0
VERTEX
  8
0
 10
-35.049271
 20
2168.919609
  0
VERTEX
  8
0
 10
-34.919271
 20
2168.579609
  0
VERTEX
  8
0
 10
-34.769271
 20
2168.249609
  0
VERTEX
  8
0
 10
-34.609271
 20
2167.929609
  0
VERTEX
  8
0
 10
-34.439271
 20
2167.619609
  0
VERTEX
  8
0
 10
-34.259271
 20
2167.319609
  0
VERTEX
  8
0
 10
-34.069271
 20
2167.039609
  0
VERTEX
  8
0
 10
-33.859271
 20
2166.769609
  0
VERTEX
  8
0
 10
-33.649271
 20
2166.509609
  0
VERTEX
  8
0
 10
-33.439271
 20
2166.269609
  0
VERTEX
  8
0
 10
-33.209271
 20
2166.039609
  0
VERTEX
  8
0
 10
-32.969271
 20
2165.829609
  0
VERTEX
  8
0
 10
-32.729271
 20
2165.639609
  0
VERTEX
  8
0
 10
-32.479271
 20
2165.459609
  0
VERTEX
  8
0
 10
-32.229271
 20
2165.299609
  0
VERTEX
  8
0
 10
-31.969271
 20
2165.159609
  0
VERTEX
  8
0
 10
-31.709271
 20
2165.039609
  0
VERTEX
  8
0
 10
-31.439271
 20
2164.929609
  0
VERTEX
  8
0
 10
-31.169271
 20
2164.849609
  0
VERTEX
  8
0
 10
-30.899271
 20
2164.779609
  0
VERTEX
  8
0
 10
-30.619271
 20
2164.729609
  0
VERTEX
  8
0
 10
-30.339271
 20
2164.699609
  0
VERTEX
  8
0
 10
-30.069271
 20
2164.689609
  0
VERTEX
  8
0
 10
-29.789271
 20
2164.699609
  0
VERTEX
  8
0
 10
-29.509271
 20
2164.729609
  0
VERTEX
  8
0
 10
-29.239271
 20
2164.779609
  0
VERTEX
  8
0
 10
-28.959271
 20
2164.849609
  0
VERTEX
  8
0
 10
-28.689271
 20
2164.929609
  0
VERTEX
  8
0
 10
-28.419271
 20
2165.039609
  0
VERTEX
  8
0
 10
-28.159271
 20
2165.159609
  0
VERTEX
  8
0
 10
-27.899271
 20
2165.299609
  0
VERTEX
  8
0
 10
-27.649271
 20
2165.459609
  0
VERTEX
  8
0
 10
-27.399271
 20
2165.639609
  0
VERTEX
  8
0
 10
-27.159271
 20
2165.829609
  0
VERTEX
  8
0
 10
-26.919271
 20
2166.039609
  0
VERTEX
  8
0
 10
-26.699271
 20
2166.269609
  0
VERTEX
  8
0
 10
-26.479271
 20
2166.509609
  0
VERTEX
  8
0
 10
-26.269271
 20
2166.769609
  0
VERTEX
  8
0
 10
-26.069271
 20
2167.039609
  0
VERTEX
  8
0
 10
-25.869271
 20
2167.319609
  0
VERTEX
  8
0
 10
-25.689271
 20
2167.619609
  0
VERTEX
  8
0
 10
-25.519271
 20
2167.929609
  0
VERTEX
  8
0
 10
-25.359271
 20
2168.249609
  0
VERTEX
  8
0
 10
-25.209271
 20
2168.579609
  0
VERTEX
  8
0
 10
-25.079271
 20
2168.919609
  0
VERTEX
  8
0
 10
-24.949271
 20
2169.269609
  0
VERTEX
  8
0
 10
-24.839271
 20
2169.629609
  0
VERTEX
  8
0
 10
-24.739271
 20
2169.999609
  0
VERTEX
  8
0
 10
-24.649271
 20
2170.369609
  0
VERTEX
  8
0
 10
-24.579271
 20
2170.749609
  0
VERTEX
  8
0
 10
-24.519271
 20
2171.129609
  0
VERTEX
  8
0
 10
-24.469271
 20
2171.519609
  0
VERTEX
  8
0
 10
-24.439271
 20
2171.909609
  0
VERTEX
  8
0
 10
-24.419271
 20
2172.299609
  0
VERTEX
  8
0
 10
-24.409271
 20
2172.689609
  0
VERTEX
  8
0
 10
-24.419271
 20
2173.089609
  0
VERTEX
  8
0
 10
-24.439271
 20
2173.479609
  0
VERTEX
  8
0
 10
-24.469271
 20
2173.869609
  0
VERTEX
  8
0
 10
-24.519271
 20
2174.249609
  0
VERTEX
  8
0
 10
-24.579271
 20
2174.639609
  0
VERTEX
  8
0
 10
-24.649271
 20
2175.009609
  0
VERTEX
  8
0
 10
-24.739271
 20
2175.389609
  0
VERTEX
  8
0
 10
-24.839271
 20
2175.749609
  0
VERTEX
  8
0
 10
-24.949271
 20
2176.109609
  0
VERTEX
  8
0
 10
-25.079271
 20
2176.459609
  0
VERTEX
  8
0
 10
-25.209271
 20
2176.809609
  0
VERTEX
  8
0
 10
-25.359271
 20
2177.139609
  0
VERTEX
  8
0
 10
-25.519271
 20
2177.459609
  0
VERTEX
  8
0
 10
-25.689271
 20
2177.769609
  0
VERTEX
  8
0
 10
-25.869271
 20
2178.069609
  0
VERTEX
  8
0
 10
-26.069271
 20
2178.349609
  0
VERTEX
  8
0
 10
-26.269271
 20
2178.619609
  0
VERTEX
  8
0
 10
-26.479271
 20
2178.879609
  0
VERTEX
  8
0
 10
-26.699271
 20
2179.119609
  0
VERTEX
  8
0
 10
-26.919271
 20
2179.339609
  0
VERTEX
  8
0
 10
-27.159271
 20
2179.549609
  0
VERTEX
  8
0
 10
-27.399271
 20
2179.749609
  0
VERTEX
  8
0
 10
-27.649271
 20
2179.919609
  0
VERTEX
  8
0
 10
-27.899271
 20
2180.079609
  0
VERTEX
  8
0
 10
-28.159271
 20
2180.229609
  0
VERTEX
  8
0
 10
-28.419271
 20
2180.349609
  0
VERTEX
  8
0
 10
-28.689271
 20
2180.449609
  0
VERTEX
  8
0
 10
-28.959271
 20
2180.539609
  0
VERTEX
  8
0
 10
-29.239271
 20
2180.609609
  0
VERTEX
  8
0
 10
-29.509271
 20
2180.649609
  0
VERTEX
  8
0
 10
-29.789271
 20
2180.679609
  0
VERTEX
  8
0
 10
-30.069271
 20
2180.689609
  0
SEQEND
  8
0
  0
POLYLINE
  8
DELTAWINGBRACKET
  6
CONTINUOUS
 62
     1
 66
     1
  0
VERTEX
  8
0
 10
-70.719271
 20
2180.689609
  0
VERTEX
  8
0
 10
-70.999271
 20
2180.679609
  0
VERTEX
  8
0
 10
-71.279271
 20
2180.649609
  0
VERTEX
  8
0
 10
-71.549271
 20
2180.609609
  0
VERTEX
  8
0
 10
-71.829271
 20
2180.539609
  0
VERTEX
  8
0
 10
-72.099271
 20
2180.449609
  0
VERTEX
  8
0
 10
-72.369271
 20
2180.349609
  0
VERTEX
  8
0
 10
-72.629271
 20
2180.229609
  0
VERTEX
  8
0
 10
-72.889271
 20
2180.079609
  0
VERTEX
  8
0
 10
-73.139271
 20
2179.919609
  0
VERTEX
  8
0
 10
-73.389271
 20
2179.749609
  0
VERTEX
  8
0
 10
-73.629271
 20
2179.549609
  0
VERTEX
  8
0
 10
-73.869271
 20
2179.339609
  0
VERTEX
  8
0
 10
-74.089271
 20
2179.119609
  0
VERTEX
  8
0
 10
-74.309271
 20
2178.879609
  0
VERTEX
  8
0
 10
-74.519271
 20
2178.619609
  0
VERTEX
  8
0
 10
-74.719271
 20
2178.349609
  0
VERTEX
  8
0
 10
-74.919271
 20
2178.069609
  0
VERTEX
  8
0
 10
-75.099271
 20
2177.769609
  0
VERTEX
  8
0
 10
-75.269271
 20
2177.459609
  0
VERTEX
  8
0
 10
-75.429271
 20
2177.139609
  0
VERTEX
  8
0
 10
-75.579271
 20
2176.809609
  0
VERTEX
  8
0
 10
-75.709271
 20
2176.459609
  0
VERTEX
  8
0
 10
-75.839271
 20
2176.109609
  0
VERTEX
  8
0
 10
-75.949271
 20
2175.749609
  0
VERTEX
  8
0
 10
-76.049271
 20
2175.389609
  0
VERTEX
  8
0
 10
-76.139271
 20
2175.009609
  0
VERTEX
  8
0
 10
-76.209271
 20
2174.639609
  0
VERTEX
  8
0
 10
-76.269271
 20
2174.249609
  0
VERTEX
  8
0
 10
-76.319271
 20
2173.869609
  0
VERTEX
  8
0
 10
-76.349271
 20
2173.479609
  0
VERTEX
  8
0
 10
-76.369271
 20
2173.089609
  0
VERTEX
  8
0
 10
-76.379271
 20
2172.689609
  0
VERTEX
  8
0
 10
-76.369271
 20
2172.299609
  0
VERTEX
  8
0
 10
-76.349271
 20
2171.909609
  0
VERTEX
  8
0
 10
-76.319271
 20
2171.519609
  0
VERTEX
  8
0
 10
-76.269271
 20
2171.129609
  0
VERTEX
  8
0
 10
-76.209271
 20
2170.749609
  0
VERTEX
  8
0
 10
-76.139271
 20
2170.369609
  0
VERTEX
  8
0
 10
-76.049271
 20
2169.999609
  0
VERTEX
  8
0
 10
-75.949271
 20
2169.629609
  0
VERTEX
  8
0
 10
-75.839271
 20
2169.269609
  0
VERTEX
  8
0
 10
-75.709271
 20
2168.919609
  0
VERTEX
  8
0
 10
-75.579271
 20
2168.579609
  0
VERTEX
  8
0
 10
-75.429271
 20
2168.249609
  0
VERTEX
  8
0
 10
-75.269271
 20
2167.929609
  0
VERTEX
  8
0
 10
-75.099271
 20
2167.619609
  0
VERTEX
  8
0
 10
-74.919271
 20
2167.319609
  0
VERTEX
  8
0
 10
-74.719271
 20
2167.039609
  0
VERTEX
  8
0
 10
-74.519271
 20
2166.769609
  0
VERTEX
  8
0
 10
-74.309271
 20
2166.509609
  0
VERTEX
  8
0
 10
-74.089271
 20
2166.269609
  0
VERTEX
  8
0
 10
-73.869271
 20
2166.039609
  0
VERTEX
  8
0
 10
-73.629271
 20
2165.829609
  0
VERTEX
  8
0
 10
-73.389271
 20
2165.639609
  0
VERTEX
  8
0
 10
-73.139271
 20
2165.459609
  0
VERTEX
  8
0
 10
-72.889271
 20
2165.299609
  0
VERTEX
  8
0
 10
-72.629271
 20
2165.159609
  0
VERTEX
  8
0
 10
-72.369271
 20
2165.039609
  0
VERTEX
  8
0
 10
-72.099271
 20
2164.929609
  0
VERTEX
  8
0
 10
-71.829271
 20
2164.849609
  0
VERTEX
  8
0
 10
-71.549271
 20
2164.779609
  0
VERTEX
  8
0
 10
-71.279271
 20
2164.729609
  0
VERTEX
  8
0
 10
-70.999271
 20
2164.699609
  0
VERTEX
  8
0
 10
-70.719271
 20
2164.689609
  0
VERTEX
  8
0
 10
-70.449271
 20
2164.699609
  0
VERTEX
  8
0
 10
-70.169271
 20
2164.729609
  0
VERTEX
  8
0
 10
-69.889271
 20
2164.779609
  0
VERTEX
  8
0
 10
-69.619271
 20
2164.849609
  0
VERTEX
  8
0
 10
-69.349271
 20
2164.929609
  0
VERTEX
  8
0
 10
-69.079271
 20
2165.039609
  0
VERTEX
  8
0
 10
-68.819271
 20
2165.159609
  0
VERTEX
  8
0
 10
-68.559271
 20
2165.299609
  0
VERTEX
  8
0
 10
-68.309271
 20
2165.459609
  0
VERTEX
  8
0
 10
-68.059271
 20
2165.639609
  0
VERTEX
  8
0
 10
-67.819271
 20
2165.829609
  0
VERTEX
  8
0
 10
-67.579271
 20
2166.039609
  0
VERTEX
  8
0
 10
-67.349271
 20
2166.269609
  0
VERTEX
  8
0
 10
-67.139271
 20
2166.509609
  0
VERTEX
  8
0
 10
-66.929271
 20
2166.769609
  0
VERTEX
  8
0
 10
-66.719271
 20
2167.039609
  0
VERTEX
  8
0
 10
-66.529271
 20
2167.319609
  0
VERTEX
  8
0
 10
-66.349271
 20
2167.619609
  0
VERTEX
  8
0
 10
-66.179271
 20
2167.929609
  0
VERTEX
  8
0
 10
-66.019271
 20
2168.249609
  0
VERTEX
  8
0
 10
-65.869271
 20
2168.579609
  0
VERTEX
  8
0
 10
-65.739271
 20
2168.919609
  0
VERTEX
  8
0
 10
-65.609271
 20
2169.269609
  0
VERTEX
  8
0
 10
-65.499271
 20
2169.629609
  0
VERTEX
  8
0
 10
-65.399271
 20
2169.999609
  0
VERTEX
  8
0
 10
-65.309271
 20
2170.369609
  0
VERTEX
  8
0
 10
-65.239271
 20
2170.749609
  0
VERTEX
  8
0
 10
-65.179271
 20
2171.129609
  0
VERTEX
  8
0
 10
-65.129271
 20
2171.519609
  0
VERTEX
  8
0
 10
-65.099271
 20
2171.909609
  0
VERTEX
  8
0
 10
-65.069271
 20
2172.299609
  0
VERTEX
  8
0
 10
-65.069271
 20
2172.689609
  0
VERTEX
  8
0
 10
-65.069271
 20
2173.089609
  0
VERTEX
  8
0
 10
-65.099271
 20
2173.479609
  0
VERTEX
  8
0
 10
-65.129271
 20
2173.869609
  0
VERTEX
  8
0
 10
-65.179271
 20
2174.249609
  0
VERTEX
  8
0
 10
-65.239271
 20
2174.639609
  0
VERTEX
  8
0
 10
-65.309271
 20
2175.009609
  0
VERTEX
  8
0
 10
-65.399271
 20
2175.389609
  0
VERTEX
  8
0
 10
-65.499271
 20
2175.749609
  0
VERTEX
  8
0
 10
-65.609271
 20
2176.109609
  0
VERTEX
  8
0
 10
-65.739271
 20
2176.459609
  0
VERTEX
  8
0
 10
-65.869271
 20
2176.809609
  0
VERTEX
  8
0
 10
-66.019271
 20
2177.139609
  0
VERTEX
  8
0
 10
-66.179271
 20
2177.459609
  0
VERTEX
  8
0
 10
-66.349271
 20
2177.769609
  0
VERTEX
  8
0
 10
-66.529271
 20
2178.069609
  0
VERTEX
  8
0
 10
-66.719271
 20
2178.349609
  0
VERTEX
  8
0
 10
-66.929271
 20
2178.619609
  0
VERTEX
  8
0
 10
-67.139271
 20
2178.879609
  0
VERTEX
  8
0
 10
-67.349271
 20
2179.119609
  0
VERTEX
  8
0
 10
-67.579271
 20
2179.339609
  0
VERTEX
  8
0
 10
-67.819271
 20
2179.549609
  0
VERTEX
  8
0
 10
-68.059271
 20
2179.749609
  0
VERTEX
  8
0
 10
-68.309271
 20
2179.919609
  0
VERTEX
  8
0
 10
-68.559271
 20
2180.079609
  0
VERTEX
  8
0
 10
-68.819271
 20
2180.229609
  0
VERTEX
  8
0
 10
-69.079271
 20
2180.349609
  0
VERTEX
  8
0
 10
-69.349271
 20
2180.449609
  0
VERTEX
  8
0
 10
-69.619271
 20
2180.539609
  0
VERTEX
  8
0
 10
-69.889271
 20
2180.609609
  0
VERTEX
  8
0
 10
-70.169271
 20
2180.649609
  0
VERTEX
  8
0
 10
-70.449271
 20
2180.679609
  0
VERTEX
  8
0
 10
-70.719271
 20
2180.689609
  0
SEQEND
  8
0
  0
POLYLINE
  8
DELTAWINGBRACKET
  6
CONTINUOUS
 62
     1
 66
     1
  0
VERTEX
  8
0
 10
-70.719271
 20
2139.689609
  0
VERTEX
  8
0
 10
-70.999271
 20
2139.679609
  0
VERTEX
  8
0
 10
-71.279271
 20
2139.649609
  0
VERTEX
  8
0
 10
-71.549271
 20
2139.609609
  0
VERTEX
  8
0
 10
-71.829271
 20
2139.539609
  0
VERTEX
  8
0
 10
-72.099271
 20
2139.449609
  0
VERTEX
  8
0
 10
-72.369271
 20
2139.349609
  0
VERTEX
  8
0
 10
-72.629271
 20
2139.229609
  0
VERTEX
  8
0
 10
-72.889271
 20
2139.079609
  0
VERTEX
  8
0
 10
-73.139271
 20
2138.919609
  0
VERTEX
  8
0
 10
-73.389271
 20
2138.749609
  0
VERTEX
  8
0
 10
-73.629271
 20
2138.549609
  0
VERTEX
  8
0
 10
-73.869271
 20
2138.339609
  0
VERTEX
  8
0
 10
-74.089271
 20
2138.119609
  0
VERTEX
  8
0
 10
-74.309271
 20
2137.879609
  0
VERTEX
  8
0
 10
-74.519271
 20
2137.619609
  0
VERTEX
  8
0
 10
-74.719271
 20
2137.349609
  0
VERTEX
  8
0
 10
-74.919271
 20
2137.069609
  0
VERTEX
  8
0
 10
-75.099271
 20
2136.769609
  0
VERTEX
  8
0
 10
-75.269271
 20
2136.459609
  0
VERTEX
  8
0
 10
-75.429271
 20
2136.139609
  0
VERTEX
  8
0
 10
-75.579271
 20
2135.809609
  0
VERTEX
  8
0
 10
-75.709271
 20
2135.459609
  0
VERTEX
  8
0
 10
-75.839271
 20
2135.109609
  0
VERTEX
  8
0
 10
-75.949271
 20
2134.749609
  0
VERTEX
  8
0
 10
-76.049271
 20
2134.389609
  0
VERTEX
  8
0
 10
-76.139271
 20
2134.009609
  0
VERTEX
  8
0
 10
-76.209271
 20
2133.639609
  0
VERTEX
  8
0
 10
-76.269271
 20
2133.249609
  0
VERTEX
  8
0
 10
-76.319271
 20
2132.869609
  0
VERTEX
  8
0
 10
-76.349271
 20
2132.479609
  0
VERTEX
  8
0
 10
-76.369271
 20
2132.089609
  0
VERTEX
  8
0
 10
-76.379271
 20
2131.689609
  0
VERTEX
  8
0
 10
-76.369271
 20
2131.299609
  0
VERTEX
  8
0
 10
-76.349271
 20
2130.909609
  0
VERTEX
  8
0
 10
-76.319271
 20
2130.519609
  0
VERTEX
  8
0
 10
-76.269271
 20
2130.129609
  0
VERTEX
  8
0
 10
-76.209271
 20
2129.749609
  0
VERTEX
  8
0
 10
-76.139271
 20
2129.369609
  0
VERTEX
  8
0
 10
-76.049271
 20
2128.999609
  0
VERTEX
  8
0
 10
-75.949271
 20
2128.629609
  0
VERTEX
  8
0
 10
-75.839271
 20
2128.269609
  0
VERTEX
  8
0
 10
-75.709271
 20
2127.919609
  0
VERTEX
  8
0
 10
-75.579271
 20
2127.579609
  0
VERTEX
  8
0
 10
-75.429271
 20
2127.249609
  0
VERTEX
  8
0
 10
-75.269271
 20
2126.929609
  0
VERTEX
  8
0
 10
-75.099271
 20
2126.619609
  0
VERTEX
  8
0
 10
-74.919271
 20
2126.319609
  0
VERTEX
  8
0
 10
-74.719271
 20
2126.039609
  0
VERTEX
  8
0
 10
-74.519271
 20
2125.769609
  0
VERTEX
  8
0
 10
-74.309271
 20
2125.509609
  0
VERTEX
  8
0
 10
-74.089271
 20
2125.269609
  0
VERTEX
  8
0
 10
-73.869271
 20
2125.039609
  0
VERTEX
  8
0
 10
-73.629271
 20
2124.829609
  0
VERTEX
  8
0
 10
-73.389271
 20
2124.639609
  0
VERTEX
  8
0
 10
-73.139271
 20
2124.459609
  0
VERTEX
  8
0
 10
-72.889271
 20
2124.299609
  0
VERTEX
  8
0
 10
-72.629271
 20
2124.159609
  0
VERTEX
  8
0
 10
-72.369271
 20
2124.039609
  0
VERTEX
  8
0
 10
-72.099271
 20
2123.929609
  0
VERTEX
  8
0
 10
-71.829271
 20
2123.849609
  0
VERTEX
  8
0
 10
-71.549271
 20
2123.779609
  0
VERTEX
  8
0
 10
-71.279271
 20
2123.729609
  0
VERTEX
  8
0
 10
-70.999271
 20
2123.699609
  0
VERTEX
  8
0
 10
-70.719271
 20
2123.689609
  0
VERTEX
  8
0
 10
-70.449271
 20
2123.699609
  0
VERTEX
  8
0
 10
-70.169271
 20
2123.729609
  0
VERTEX
  8
0
 10
-69.889271
 20
2123.779609
  0
VERTEX
  8
0
 10
-69.619271
 20
2123.849609
  0
VERTEX
  8
0
 10
-69.349271
 20
2123.929609
  0
VERTEX
  8
0
 10
-69.079271
 20
2124.039609
  0
VERTEX
  8
0
 10
-68.819271
 20
2124.159609
  0
VERTEX
  8
0
 10
-68.559271
 20
2124.299609
  0
VERTEX
  8
0
 10
-68.309271
 20
2124.459609
  0
VERTEX
  8
0
 10
-68.059271
 20
2124.639609
  0
VERTEX
  8
0
 10
-67.819271
 20
2124.829609
  0
VERTEX
  8
0
 10
-67.579271
 20
2125.039609
  0
VERTEX
  8
0
 10
-67.349271
 20
2125.269609
  0
VERTEX
  8
0
 10
-67.139271
 20
2125.509609
  0
VERTEX
  8
0
 10
-66.929271
 20
2125.769609
  0
VERTEX
  8
0
 10
-66.719271
 20
2126.039609
  0
VERTEX
  8
0
 10
-66.529271
 20
2126.319609
  0
VERTEX
  8
0
 10
-66.349271
 20
2126.619609
  0
VERTEX
  8
0
 10
-66.179271
 20
2126.929609
  0
VERTEX
  8
0
 10
-66.019271
 20
2127.249609
  0
VERTEX
  8
0
 10
-65.869271
 20
2127.579609
  0
VERTEX
  8
0
 10
-65.739271
 20
2127.919609
  0
VERTEX
  8
0
 10
-65.609271
 20
2128.269609
  0
VERTEX
  8
0
 10
-65.499271
 20
2128.629609
  0
VERTEX
  8
0
 10
-65.399271
 20
2128.999609
  0
VERTEX
  8
0
 10
-65.309271
 20
2129.369609
  0
VERTEX
  8
0
 10
-65.239271
 20
2129.749609
  0
VERTEX
  8
0
 10
-65.179271
 20
2130.129609
  0
VERTEX
  8
0
 10
-65.129271
 20
2130.519609
  0
VERTEX
  8
0
 10
-65.099271
 20
2130.909609
  0
VERTEX
  8
0
 10
-65.069271
 20
2131.299609
  0
VERTEX
  8
0
 10
-65.069271
 20
2131.689609
  0
VERTEX
  8
0
 10
-65.069271
 20
2132.089609
  0
VERTEX
  8
0
 10
-65.099271
 20
2132.479609
  0
VERTEX
  8
0
 10
-65.129271
 20
2132.869609
  0
VERTEX
  8
0
 10
-65.179271
 20
2133.249609
  0
VERTEX
  8
0
 10
-65.239271
 20
2133.639609
  0
VERTEX
  8
0
 10
-65.309271
 20
2134.009609
  0
VERTEX
  8
0
 10
-65.399271
 20
2134.389609
  0
VERTEX
  8
0
 10
-65.499271
 20
2134.749609
  0
VERTEX
  8
0
 10
-65.609271
 20
2135.109609
  0
VERTEX
  8
0
 10
-65.739271
 20
2135.459609
  0
VERTEX
  8
0
 10
-65.869271
 20
2135.809609
  0
VERTEX
  8
0
 10
-66.019271
 20
2136.139609
  0
VERTEX
  8
0
 10
-66.179271
 20
2136.459609
  0
VERTEX
  8
0
 10
-66.349271
 20
2136.769609
  0
VERTEX
  8
0
 10
-66.529271
 20
2137.069609
  0
VERTEX
  8
0
 10
-66.719271
 20
2137.349609
  0
VERTEX
  8
0
 10
-66.929271
 20
2137.619609
  0
VERTEX
  8
0
 10
-67.139271
 20
2137.879609
  0
VERTEX
  8
0
 10
-67.349271
 20
2138.119609
  0
VERTEX
  8
0
 10
-67.579271
 20
2138.339609
  0
VERTEX
  8
0
 10
-67.819271
 20
2138.549609
  0
VERTEX
  8
0
 10
-68.059271
 20
2138.749609
  0
VERTEX
  8
0
 10
-68.309271
 20
2138.919609
  0
VERTEX
  8
0
 10
-68.559271
 20
2139.079609
  0
VERTEX
  8
0
 10
-68.819271
 20
2139.229609
  0
VERTEX
  8
0
 10
-69.079271
 20
2139.349609
  0
VERTEX
  8
0
 10
-69.349271
 20
2139.449609
  0
VERTEX
  8
0
 10
-69.619271
 20
2139.539609
  0
VERTEX
  8
0
 10
-69.889271
 20
2139.609609
  0
VERTEX
  8
0
 10
-70.169271
 20
2139.649609
  0
VERTEX
  8
0
 10
-70.449271
 20
2139.679609
  0
VERTEX
  8
0
 10
-70.719271
 20
2139.689609
  0
SEQEND
  8
0
  0
POLYLINE
  8
DELTAWINGBRACKET
  6
CONTINUOUS
 62
     1
 66
     1
  0
VERTEX
  8
0
 10
-30.069271
 20
2139.689609
  0
VERTEX
  8
0
 10
-30.339271
 20
2139.679609
  0
VERTEX
  8
0
 10
-30.619271
 20
2139.649609
  0
VERTEX
  8
0
 10
-30.899271
 20
2139.609609
  0
VERTEX
  8
0
 10
-31.169271
 20
2139.539609
  0
VERTEX
  8
0
 10
-31.439271
 20
2139.449609
  0
VERTEX
  8
0
 10
-31.709271
 20
2139.349609
  0
VERTEX
  8
0
 10
-31.969271
 20
2139.229609
  0
VERTEX
  8
0
 10
-32.229271
 20
2139.079609
  0
VERTEX
  8
0
 10
-32.479271
 20
2138.919609
  0
VERTEX
  8
0
 10
-32.729271
 20
2138.749609
  0
VERTEX
  8
0
 10
-32.969271
 20
2138.549609
  0
VERTEX
  8
0
 10
-33.209271
 20
2138.339609
  0
VERTEX
  8
0
 10
-33.439271
 20
2138.119609
  0
VERTEX
  8
0
 10
-33.649271
 20
2137.879609
  0
VERTEX
  8
0
 10
-33.859271
 20
2137.619609
  0
VERTEX
  8
0
 10
-34.069271
 20
2137.349609
  0
VERTEX
  8
0
 10
-34.259271
 20
2137.069609
  0
VERTEX
  8
0
 10
-34.439271
 20
2136.769609
  0
VERTEX
  8
0
 10
-34.609271
 20
2136.459609
  0
VERTEX
  8
0
 10
-34.769271
 20
2136.139609
  0
VERTEX
  8
0
 10
-34.919271
 20
2135.809609
  0
VERTEX
  8
0
 10
-35.049271
 20
2135.459609
  0
VERTEX
  8
0
 10
-35.179271
 20
2135.109609
  0
VERTEX
  8
0
 10
-35.289271
 20
2134.749609
  0
VERTEX
  8
0
 10
-35.389271
 20
2134.389609
  0
VERTEX
  8
0
 10
-35.479271
 20
2134.009609
  0
VERTEX
  8
0
 10
-35.549271
 20
2133.639609
  0
VERTEX
  8
0
 10
-35.609271
 20
2133.249609
  0
VERTEX
  8
0
 10
-35.659271
 20
2132.869609
  0
VERTEX
  8
0
 10
-35.699271
 20
2132.479609
  0
VERTEX
  8
0
 10
-35.719271
 20
2132.089609
  0
VERTEX
  8
0
 10
-35.719271
 20
2131.689609
  0
VERTEX
  8
0
 10
-35.719271
 20
2131.299609
  0
VERTEX
  8
0
 10
-35.699271
 20
2130.909609
  0
VERTEX
  8
0
 10
-35.659271
 20
2130.519609
  0
VERTEX
  8
0
 10
-35.609271
 20
2130.129609
  0
VERTEX
  8
0
 10
-35.549271
 20
2129.749609
  0
VERTEX
  8
0
 10
-35.479271
 20
2129.369609
  0
VERTEX
  8
0
 10
-35.389271
 20
2128.999609
  0
VERTEX
  8
0
 10
-35.289271
 20
2128.629609
  0
VERTEX
  8
0
 10
-35.179271
 20
2128.269609
  0
VERTEX
  8
0
 10
-35.049271
 20
2127.919609
  0
VERTEX
  8
0
 10
-34.919271
 20
2127.579609
  0
VERTEX
  8
0
 10
-34.769271
 20
2127.249609
  0
VERTEX
  8
0
 10
-34.609271
 20
2126.929609
  0
VERTEX
  8
0
 10
-34.439271
 20
2126.619609
  0
VERTEX
  8
0
 10
-34.259271
 20
2126.319609
  0
VERTEX
  8
0
 10
-34.069271
 20
2126.039609
  0
VERTEX
  8
0
 10
-33.859271
 20
2125.769609
  0
VERTEX
  8
0
 10
-33.649271
 20
2125.509609
  0
VERTEX
  8
0
 10
-33.439271
 20
2125.269609
  0
VERTEX
  8
0
 10
-33.209271
 20
2125.039609
  0
VERTEX
  8
0
 10
-32.969271
 20
2124.829609
  0
VERTEX
  8
0
 10
-32.729271
 20
2124.639609
  0
VERTEX
  8
0
 10
-32.479271
 20
2124.459609
  0
VERTEX
  8
0
 10
-32.229271
 20
2124.299609
  0
VERTEX
  8
0
 10
-31.969271
 20
2124.159609
  0
VERTEX
  8
0
 10
-31.709271
 20
2124.039609
  0
VERTEX
  8
0
 10
-31.439271
 20
2123.929609
  0
VERTEX
  8
0
 10
-31.169271
 20
2123.849609
  0
VERTEX
  8
0
 10
-30.899271
 20
2123.779609
  0
VERTEX
  8
0
 10
-30.619271
 20
2123.729609
  0
VERTEX
  8
0
 10
-30.339271
 20
2123.699609
  0
VERTEX
  8
0
 10
-30.069271
 20
2123.689609
  0
VERTEX
  8
0
 10
-29.789271
 20
2123.699609
  0
VERTEX
  8
0
 10
-29.509271
 20
2123.729609
  0
VERTEX
  8
0
 10
-29.239271
 20
2123.779609
  0
VERTEX
  8
0
 10
-28.959271
 20
2123.849609
  0
VERTEX
  8
0
 10
-28.689271
 20
2123.929609
  0
VERTEX
  8
0
 10
-28.419271
 20
2124.039609
  0
VERTEX
  8
0
 10
-28.159271
 20
2124.159609
  0
VERTEX
  8
0
 10
-27.899271
 20
2124.299609
  0
VERTEX
  8
0
 10
-27.649271
 20
2124.459609
  0
VERTEX
  8
0
 10
-27.399271
 20
2124.639609
  0
VERTEX
  8
0
 10
-27.159271
 20
2124.829609
  0
VERTEX
  8
0
 10
-26.919271
 20
2125.039609
  0
VERTEX
  8
0
 10
-26.699271
 20
2125.269609
  0
VERTEX
  8
0
 10
-26.479271
 20
2125.509609
  0
VERTEX
  8
0
 10
-26.269271
 20
2125.769609
  0
VERTEX
  8
0
 10
-26.069271
 20
2126.039609
  0
VERTEX
  8
0
 10
-25.869271
 20
2126.319609
  0
VERTEX
  8
0
 10
-25.689271
 20
2126.619609
  0
VERTEX
  8
0
 10
-25.519271
 20
2126.929609
  0
VERTEX
  8
0
 10
-25.359271
 20
2127.249609
  0
VERTEX
  8
0
 10
-25.209271
 20
2127.579609
  0
VERTEX
  8
0
 10
-25.079271
 20
2127.919609
  0
VERTEX
  8
0
 10
-24.949271
 20
2128.269609
  0
VERTEX
  8
0
 10
-24.839271
 20
2128.629609
  0
VERTEX
  8
0
 10
-24.739271
 20
2128.999609
  0
VERTEX
  8
0
 10
-24.649271
 20
2129.369609
  0
VERTEX
  8
0
 10
-24.579271
 20
2129.749609
  0
VERTEX
  8
0
 10
-24.519271
 20
2130.129609
  0
VERTEX
  8
0
 10
-24.469271
 20
2130.519609
  0
VERTEX
  8
0
 10
-24.439271
 20
2130.909609
  0
VERTEX
  8
0
 10
-24.419271
 20
2131.299609
  0
VERTEX
  8
0
 10
-24.409271
 20
2131.689609
  0
VERTEX
  8
0
 10
-24.419271
 20
2132.089609
  0
VERTEX
  8
0
 10
-24.439271
 20
2132.479609
  0
VERTEX
  8
0
 10
-24.469271
 20
2132.869609
  0
VERTEX
  8
0
 10
-24.519271
 20
2133.249609
  0
VERTEX
  8
0
 10
-24.579271
 20
2133.639609
  0
VERTEX
  8
0
 10
-24.649271
 20
2134.009609
  0
VERTEX
  8
0
 10
-24.739271
 20
2134.389609
  0
VERTEX
  8
0
 10
-24.839271
 20
2134.749609
  0
VERTEX
  8
0
 10
-24.949271
 20
2135.109609
  0
VERTEX
  8
0
 10
-25.079271
 20
2135.459609
  0
VERTEX
  8
0
 10
-25.209271
 20
2135.809609
  0
VERTEX
  8
0
 10
-25.359271
 20
2136.139609
  0
VERTEX
  8
0
 10
-25.519271
 20
2136.459609
  0
VERTEX
  8
0
 10
-25.689271
 20
2136.769609
  0
VERTEX
  8
0
 10
-25.869271
 20
2137.069609
  0
VERTEX
  8
0
 10
-26.069271
 20
2137.349609
  0
VERTEX
  8
0
 10
-26.269271
 20
2137.619609
  0
VERTEX
  8
0
 10
-26.479271
 20
2137.879609
  0
VERTEX
  8
0
 10
-26.699271
 20
2138.119609
  0
VERTEX
  8
0
 10
-26.919271
 20
2138.339609
  0
VERTEX
  8
0
 10
-27.159271
 20
2138.549609
  0
VERTEX
  8
0
 10
-27.399271
 20
2138.749609
  0
VERTEX
  8
0
 10
-27.649271
 20
2138.919609
  0
VERTEX
  8
0
 10
-27.899271
 20
2139.079609
  0
VERTEX
  8
0
 10
-28.159271
 20
2139.229609
  0
VERTEX
  8
0
 10
-28.419271
 20
2139.349609
  0
VERTEX
  8
0
 10
-28.689271
 20
2139.449609
  0
VERTEX
  8
0
 10
-28.959271
 20
2139.539609
  0
VERTEX
  8
0
 10
-29.239271
 20
2139.609609
  0
VERTEX
  8
0
 10
-29.509271
 20
2139.649609
  0
VERTEX
  8
0
 10
-29.789271
 20
2139.679609
  0
VERTEX
  8
0
 10
-30.069271
 20
2139.689609
  0
SEQEND
  8
0
  0
POLYLINE
  8
DELTAWINGBRACKET
  6
CONTINUOUS
 62
     1
 66
     1
  0
VERTEX
  8
0
 10
51.251729
 20
2180.689609
  0
VERTEX
  8
0
 10
50.974729
 20
2180.679609
  0
VERTEX
  8
0
 10
50.697729
 20
2180.649609
  0
VERTEX
  8
0
 10
50.421729
 20
2180.609609
  0
VERTEX
  8
0
 10
50.148729
 20
2180.539609
  0
VERTEX
  8
0
 10
49.877729
 20
2180.449609
  0
VERTEX
  8
0
 10
49.609729
 20
2180.349609
  0
VERTEX
  8
0
 10
49.346729
 20
2180.229609
  0
VERTEX
  8
0
 10
49.086729
 20
2180.079609
  0
VERTEX
  8
0
 10
48.833729
 20
2179.919609
  0
VERTEX
  8
0
 10
48.585729
 20
2179.749609
  0
VERTEX
  8
0
 10
48.343729
 20
2179.549609
  0
VERTEX
  8
0
 10
48.108729
 20
2179.339609
  0
VERTEX
  8
0
 10
47.881729
 20
2179.119609
  0
VERTEX
  8
0
 10
47.663729
 20
2178.879609
  0
VERTEX
  8
0
 10
47.452729
 20
2178.619609
  0
VERTEX
  8
0
 10
47.251729
 20
2178.349609
  0
VERTEX
  8
0
 10
47.060729
 20
2178.069609
  0
VERTEX
  8
0
 10
46.878729
 20
2177.769609
  0
VERTEX
  8
0
 10
46.708729
 20
2177.459609
  0
VERTEX
  8
0
 10
46.548729
 20
2177.139609
  0
VERTEX
  8
0
 10
46.399729
 20
2176.809609
  0
VERTEX
  8
0
 10
46.262729
 20
2176.459609
  0
VERTEX
  8
0
 10
46.138729
 20
2176.109609
  0
VERTEX
  8
0
 10
46.025729
 20
2175.749609
  0
VERTEX
  8
0
 10
45.925729
 20
2175.389609
  0
VERTEX
  8
0
 10
45.838729
 20
2175.009609
  0
VERTEX
  8
0
 10
45.764729
 20
2174.639609
  0
VERTEX
  8
0
 10
45.703729
 20
2174.249609
  0
VERTEX
  8
0
 10
45.656729
 20
2173.869609
  0
VERTEX
  8
0
 10
45.622729
 20
2173.479609
  0
VERTEX
  8
0
 10
45.601729
 20
2173.089609
  0
VERTEX
  8
0
 10
45.594729
 20
2172.689609
  0
VERTEX
  8
0
 10
45.601729
 20
2172.299609
  0
VERTEX
  8
0
 10
45.622729
 20
2171.909609
  0
VERTEX
  8
0
 10
45.656729
 20
2171.519609
  0
VERTEX
  8
0
 10
45.703729
 20
2171.129609
  0
VERTEX
  8
0
 10
45.764729
 20
2170.749609
  0
VERTEX
  8
0
 10
45.838729
 20
2170.369609
  0
VERTEX
  8
0
 10
45.925729
 20
2169.999609
  0
VERTEX
  8
0
 10
46.025729
 20
2169.629609
  0
VERTEX
  8
0
 10
46.138729
 20
2169.269609
  0
VERTEX
  8
0
 10
46.262729
 20
2168.919609
  0
VERTEX
  8
0
 10
46.399729
 20
2168.579609
  0
VERTEX
  8
0
 10
46.548729
 20
2168.249609
  0
VERTEX
  8
0
 10
46.708729
 20
2167.929609
  0
VERTEX
  8
0
 10
46.878729
 20
2167.619609
  0
VERTEX
  8
0
 10
47.060729
 20
2167.319609
  0
VERTEX
  8
0
 10
47.251729
 20
2167.039609
  0
VERTEX
  8
0
 10
47.452729
 20
2166.769609
  0
VERTEX
  8
0
 10
47.663729
 20
2166.509609
  0
VERTEX
  8
0
 10
47.881729
 20
2166.269609
  0
VERTEX
  8
0
 10
48.108729
 20
2166.039609
  0
VERTEX
  8
0
 10
48.343729
 20
2165.829609
  0
VERTEX
  8
0
 10
48.585729
 20
2165.639609
  0
VERTEX
  8
0
 10
48.833729
 20
2165.459609
  0
VERTEX
  8
0
 10
49.086729
 20
2165.299609
  0
VERTEX
  8
0
 10
49.346729
 20
2165.159609
  0
VERTEX
  8
0
 10
49.609729
 20
2165.039609
  0
VERTEX
  8
0
 10
49.877729
 20
2164.929609
  0
VERTEX
  8
0
 10
50.148729
 20
2164.849609
  0
VERTEX
  8
0
 10
50.421729
 20
2164.779609
  0
VERTEX
  8
0
 10
50.697729
 20
2164.729609
  0
VERTEX
  8
0
 10
50.974729
 20
2164.699609
  0
VERTEX
  8
0
 10
51.251729
 20
2164.689609
  0
VERTEX
  8
0
 10
51.529729
 20
2164.699609
  0
VERTEX
  8
0
 10
51.806729
 20
2164.729609
  0
VERTEX
  8
0
 10
52.081729
 20
2164.779609
  0
VERTEX
  8
0
 10
52.355729
 20
2164.849609
  0
VERTEX
  8
0
 10
52.626729
 20
2164.929609
  0
VERTEX
  8
0
 10
52.893729
 20
2165.039609
  0
VERTEX
  8
0
 10
53.157729
 20
2165.159609
  0
VERTEX
  8
0
 10
53.416729
 20
2165.299609
  0
VERTEX
  8
0
 10
53.670729
 20
2165.459609
  0
VERTEX
  8
0
 10
53.918729
 20
2165.639609
  0
VERTEX
  8
0
 10
54.159729
 20
2165.829609
  0
VERTEX
  8
0
 10
54.394729
 20
2166.039609
  0
VERTEX
  8
0
 10
54.621729
 20
2166.269609
  0
VERTEX
  8
0
 10
54.840729
 20
2166.509609
  0
VERTEX
  8
0
 10
55.050729
 20
2166.769609
  0
VERTEX
  8
0
 10
55.251729
 20
2167.039609
  0
VERTEX
  8
0
 10
55.443729
 20
2167.319609
  0
VERTEX
  8
0
 10
55.624729
 20
2167.619609
  0
VERTEX
  8
0
 10
55.795729
 20
2167.929609
  0
VERTEX
  8
0
 10
55.955729
 20
2168.249609
  0
VERTEX
  8
0
 10
56.103729
 20
2168.579609
  0
VERTEX
  8
0
 10
56.240729
 20
2168.919609
  0
VERTEX
  8
0
 10
56.365729
 20
2169.269609
  0
VERTEX
  8
0
 10
56.478729
 20
2169.629609
  0
VERTEX
  8
0
 10
56.577729
 20
2169.999609
  0
VERTEX
  8
0
 10
56.665729
 20
2170.369609
  0
VERTEX
  8
0
 10
56.739729
 20
2170.749609
  0
VERTEX
  8
0
 10
56.799729
 20
2171.129609
  0
VERTEX
  8
0
 10
56.847729
 20
2171.519609
  0
VERTEX
  8
0
 10
56.881729
 20
2171.909609
  0
VERTEX
  8
0
 10
56.901729
 20
2172.299609
  0
VERTEX
  8
0
 10
56.908729
 20
2172.689609
  0
VERTEX
  8
0
 10
56.901729
 20
2173.089609
  0
VERTEX
  8
0
 10
56.881729
 20
2173.479609
  0
VERTEX
  8
0
 10
56.847729
 20
2173.869609
  0
VERTEX
  8
0
 10
56.799729
 20
2174.249609
  0
VERTEX
  8
0
 10
56.739729
 20
2174.639609
  0
VERTEX
  8
0
 10
56.665729
 20
2175.009609
  0
VERTEX
  8
0
 10
56.577729
 20
2175.389609
  0
VERTEX
  8
0
 10
56.478729
 20
2175.749609
  0
VERTEX
  8
0
 10
56.365729
 20
2176.109609
  0
VERTEX
  8
0
 10
56.240729
 20
2176.459609
  0
VERTEX
  8
0
 10
56.103729
 20
2176.809609
  0
VERTEX
  8
0
 10
55.955729
 20
2177.139609
  0
VERTEX
  8
0
 10
55.795729
 20
2177.459609
  0
VERTEX
  8
0
 10
55.624729
 20
2177.769609
  0
VERTEX
  8
0
 10
55.443729
 20
2178.069609
  0
VERTEX
  8
0
 10
55.251729
 20
2178.349609
  0
VERTEX
  8
0
 10
55.050729
 20
2178.619609
  0
VERTEX
  8
0
 10
54.840729
 20
2178.879609
  0
VERTEX
  8
0
 10
54.621729
 20
2179.119609
  0
VERTEX
  8
0
 10
54.394729
 20
2179.339609
  0
VERTEX
  8
0
 10
54.159729
 20
2179.549609
  0
VERTEX
  8
0
 10
53.918729
 20
2179.749609
  0
VERTEX
  8
0
 10
53.670729
 20
2179.919609
  0
VERTEX
  8
0
 10
53.416729
 20
2180.079609
  0
VERTEX
  8
0
 10
53.157729
 20
2180.229609
  0
VERTEX
  8
0
 10
52.893729
 20
2180.349609
  0
VERTEX
  8
0
 10
52.626729
 20
2180.449609
  0
VERTEX
  8
0
 10
52.355729
 20
2180.539609
  0
VERTEX
  8
0
 10
52.081729
 20
2180.609609
  0
VERTEX
  8
0
 10
51.806729
 20
2180.649609
  0
VERTEX
  8
0
 10
51.529729
 20
2180.679609
  0
VERTEX
  8
0
 10
51.251729
 20
2180.689609
  0
SEQEND
  8
0
  0
POLYLINE
  8
DELTAWINGBRACKET
  6
CONTINUOUS
 62
     1
 66
     1
  0
VERTEX
  8
0
 10
51.251729
 20
2139.689609
  0
VERTEX
  8
0
 10
50.974729
 20
2139.679609
  0
VERTEX
  8
0
 10
50.697729
 20
2139.649609
  0
VERTEX
  8
0
 10
50.421729
 20
2139.609609
  0
VERTEX
  8
0
 10
50.148729
 20
2139.539609
  0
VERTEX
  8
0
 10
49.877729
 20
2139.449609
  0
VERTEX
  8
0
 10
49.609729
 20
2139.349609
  0
VERTEX
  8
0
 10
49.346729
 20
2139.229609
  0
VERTEX
  8
0
 10
49.086729
 20
2139.079609
  0
VERTEX
  8
0
 10
48.833729
 20
2138.919609
  0
VERTEX
  8
0
 10
48.585729
 20
2138.749609
  0
VERTEX
  8
0
 10
48.343729
 20
2138.549609
  0
VERTEX
  8
0
 10
48.108729
 20
2138.339609
  0
VERTEX
  8
0
 10
47.881729
 20
2138.119609
  0
VERTEX
  8
0
 10
47.663729
 20
2137.879609
  0
VERTEX
  8
0
 10
47.452729
 20
2137.619609
  0
VERTEX
  8
0
 10
47.251729
 20
2137.349609
  0
VERTEX
  8
0
 10
47.060729
 20
2137.069609
  0
VERTEX
  8
0
 10
46.878729
 20
2136.769609
  0
VERTEX
  8
0
 10
46.708729
 20
2136.459609
  0
VERTEX
  8
0
 10
46.548729
 20
2136.139609
  0
VERTEX
  8
0
 10
46.399729
 20
2135.809609
  0
VERTEX
  8
0
 10
46.262729
 20
2135.459609
  0
VERTEX
  8
0
 10
46.138729
 20
2135.109609
  0
VERTEX
  8
0
 10
46.025729
 20
2134.749609
  0
VERTEX
  8
0
 10
45.925729
 20
2134.389609
  0
VERTEX
  8
0
 10
45.838729
 20
2134.009609
  0
VERTEX
  8
0
 10
45.764729
 20
2133.639609
  0
VERTEX
  8
0
 10
45.703729
 20
2133.249609
  0
VERTEX
  8
0
 10
45.656729
 20
2132.869609
  0
VERTEX
  8
0
 10
45.622729
 20
2132.479609
  0
VERTEX
  8
0
 10
45.601729
 20
2132.089609
  0
VERTEX
  8
0
 10
45.594729
 20
2131.689609
  0
VERTEX
  8
0
 10
45.601729
 20
2131.299609
  0
VERTEX
  8
0
 10
45.622729
 20
2130.909609
  0
VERTEX
  8
0
 10
45.656729
 20
2130.519609
  0
VERTEX
  8
0
 10
45.703729
 20
2130.129609
  0
VERTEX
  8
0
 10
45.764729
 20
2129.749609
  0
VERTEX
  8
0
 10
45.838729
 20
2129.369609
  0
VERTEX
  8
0
 10
45.925729
 20
2128.999609
  0
VERTEX
  8
0
 10
46.025729
 20
2128.629609
  0
VERTEX
  8
0
 10
46.138729
 20
2128.269609
  0
VERTEX
  8
0
 10
46.262729
 20
2127.919609
  0
VERTEX
  8
0
 10
46.399729
 20
2127.579609
  0
VERTEX
  8
0
 10
46.548729
 20
2127.249609
  0
VERTEX
  8
0
 10
46.708729
 20
2126.929609
  0
VERTEX
  8
0
 10
46.878729
 20
2126.619609
  0
VERTEX
  8
0
 10
47.060729
 20
2126.319609
  0
VERTEX
  8
0
 10
47.251729
 20
2126.039609
  0
VERTEX
  8
0
 10
47.452729
 20
2125.769609
  0
VERTEX
  8
0
 10
47.663729
 20
2125.509609
  0
VERTEX
  8
0
 10
47.881729
 20
2125.269609
  0
VERTEX
  8
0
 10
48.108729
 20
2125.039609
  0
VERTEX
  8
0
 10
48.343729
 20
2124.829609
  0
VERTEX
  8
0
 10
48.585729
 20
2124.639609
  0
VERTEX
  8
0
 10
48.833729
 20
2124.459609
  0
VERTEX
  8
0
 10
49.086729
 20
2124.299609
  0
VERTEX
  8
0
 10
49.346729
 20
2124.159609
  0
VERTEX
  8
0
 10
49.609729
 20
2124.039609
  0
VERTEX
  8
0
 10
49.877729
 20
2123.929609
  0
VERTEX
  8
0
 10
50.148729
 20
2123.849609
  0
VERTEX
  8
0
 10
50.421729
 20
2123.779609
  0
VERTEX
  8
0
 10
50.697729
 20
2123.729609
  0
VERTEX
  8
0
 10
50.974729
 20
2123.699609
  0
VERTEX
  8
0
 10
51.251729
 20
2123.689609
  0
VERTEX
  8
0
 10
51.529729
 20
2123.699609
  0
VERTEX
  8
0
 10
51.806729
 20
2123.729609
  0
VERTEX
  8
0
 10
52.081729
 20
2123.779609
  0
VERTEX
  8
0
 10
52.355729
 20
2123.849609
  0
VERTEX
  8
0
 10
52.626729
 20
2123.929609
  0
VERTEX
  8
0
 10
52.893729
 20
2124.039609
  0
VERTEX
  8
0
 10
53.157729
 20
2124.159609
  0
VERTEX
  8
0
 10
53.416729
 20
2124.299609
  0
VERTEX
  8
0
 10
53.670729
 20
2124.459609
  0
VERTEX
  8
0
 10
53.918729
 20
2124.639609
  0
VERTEX
  8
0
 10
54.159729
 20
2124.829609
  0
VERTEX
  8
0
 10
54.394729
 20
2125.039609
  0
VERTEX
  8
0
 10
54.621729
 20
2125.269609
  0
VERTEX
  8
0
 10
54.840729
 20
2125.509609
  0
VERTEX
  8
0
 10
55.050729
 20
2125.769609
  0
VERTEX
  8
0
 10
55.251729
 20
2126.039609
  0
VERTEX
  8
0
 10
55.443729
 20
2126.319609
  0
VERTEX
  8
0
 10
55.624729
 20
2126.619609
  0
VERTEX
  8
0
 10
55.795729
 20
2126.929609
  0
VERTEX
  8
0
 10
55.955729
 20
2127.249609
  0
VERTEX
  8
0
 10
56.103729
 20
2127.579609
  0
VERTEX
  8
0
 10
56.240729
 20
2127.919609
  0
VERTEX
  8
0
 10
56.365729
 20
2128.269609
  0
VERTEX
  8
0
 10
56.478729
 20
2128.629609
  0
VERTEX
  8
0
 10
56.577729
 20
2128.999609
  0
VERTEX
  8
0
 10
56.665729
 20
2129.369609
  0
VERTEX
  8
0
 10
56.739729
 20
2129.749609
  0
VERTEX
  8
0
 10
56.799729
 20
2130.129609
  0
VERTEX
  8
0
 10
56.847729
 20
2130.519609
  0
VERTEX
  8
0
 10
56.881729
 20
2130.909609
  0
VERTEX
  8
0
 10
56.901729
 20
2131.299609
  0
VERTEX
  8
0
 10
56.908729
 20
2131.689609
  0
VERTEX
  8
0
 10
56.901729
 20
2132.089609
  0
VERTEX
  8
0
 10
56.881729
 20
2132.479609
  0
VERTEX
  8
0
 10
56.847729
 20
2132.869609
  0
VERTEX
  8
0
 10
56.799729
 20
2133.249609
  0
VERTEX
  8
0
 10
56.739729
 20
2133.639609
  0
VERTEX
  8
0
 10
56.665729
 20
2134.009609
  0
VERTEX
  8
0
 10
56.577729
 20
2134.389609
  0
VERTEX
  8
0
 10
56.478729
 20
2134.749609
  0
VERTEX
  8
0
 10
56.365729
 20
2135.109609
  0
VERTEX
  8
0
 10
56.240729
 20
2135.459609
  0
VERTEX
  8
0
 10
56.103729
 20
2135.809609
  0
VERTEX
  8
0
 10
55.955729
 20
2136.139609
  0
VERTEX
  8
0
 10
55.795729
 20
2136.459609
  0
VERTEX
  8
0
 10
55.624729
 20
2136.769609
  0
VERTEX
  8
0
 10
55.443729
 20
2137.069609
  0
VERTEX
  8
0
 10
55.251729
 20
2137.349609
  0
VERTEX
  8
0
 10
55.050729
 20
2137.619609
  0
VERTEX
  8
0
 10
54.840729
 20
2137.879609
  0
VERTEX
  8
0
 10
54.621729
 20
2138.119609
  0
VERTEX
  8
0
 10
54.394729
 20
2138.339609
  0
VERTEX
  8
0
 10
54.159729
 20
2138.549609
  0
VERTEX
  8
0
 10
53.918729
 20
2138.749609
  0
VERTEX
  8
0
 10
53.670729
 20
2138.919609
  0
VERTEX
  8
0
 10
53.416729
 20
2139.079609
  0
VERTEX
  8
0
 10
53.157729
 20
2139.229609
  0
VERTEX
  8
0
 10
52.893729
 20
2139.349609
  0
VERTEX
  8
0
 10
52.626729
 20
2139.449609
  0
VERTEX
  8
0
 10
52.355729
 20
2139.539609
  0
VERTEX
  8
0
 10
52.081729
 20
2139.609609
  0
VERTEX
  8
0
 10
51.806729
 20
2139.649609
  0
VERTEX
  8
0
 10
51.529729
 20
2139.679609
  0
VERTEX
  8
0
 10
51.251729
 20
2139.689609
  0
SEQEND
  8
0
  0
ARC
  8
DELTAWINGS
  6
CONTINUOUS
 62
     3
 10
58.949592
 20
2178.069158
 40
135.0
 50
180.0
 51
240.802675
  0
LINE
  8
DELTAWINGS
  6
CONTINUOUS
 62
     3
 10
-76.050408
 20
2178.069158
 11
-76.050408
 21
2189.692257
  0
LINE
  8
DELTAWINGBRACKET
  6
CONTINUOUS
 62
     1
 10
108.280422
 20
2189.692257
 11
108.280422
 21
2114.692257
  0
LINE
  8
RING
  6
CONTINUOUS
 62
     7
 10
181.719151
 20
2189.692257
 11
188.283375
 21
2172.352619
  0
LINE
  8
RING
  6
CONTINUOUS
 62
     7
 10
188.283375
 20
2172.352619
 11
180.931515
 21
2150.307772
  0
LINE
  8
RING
  6
CONTINUOUS
 62
     7
 10
180.931515
 20
2150.307772
 11
191.959295
 21
2131.937077
  0
LINE
  8
RING
  6
CONTINUOUS
 62
     7
 10
191.959295
 20
2131.937077
 11
191.650457
 21
2114.692257
  0
LINE
  8
DELTAWINGS
  6
CONTINUOUS
 62
     3
 10
108.280422
 20
2189.692257
 11
108.280422
 21
1905.363701
  0
LINE
  8
DELTAWINGS
  6
CONTINUOUS
 62
     3
 10
128.280422
 20
2189.692257
 11
128.280422
 21
1905.363701
  0
LINE
  8
0
  6
CONTINUOUS
 62
     7
 10
137.030422
 20
2164.692257
 11
138.280422
 21
2165.942257
  0
LINE
  8
0
  6
CONTINUOUS
 62
     7
 10
137.030422
 20
2164.692257
 11
128.280422
 21
2164.692257
  0
LINE
  8
0
  6
CONTINUOUS
 62
     7
 10
137.030422
 20
2180.692257
 11
138.280422
 21
2179.442257
  0
LINE
  8
0
  6
CONTINUOUS
 62
     7
 10
137.030422
 20
2180.692257
 11
128.280422
 21
2180.692257
  0
LINE
  8
0
  6
CONTINUOUS
 62
     7
 10
138.280422
 20
2179.442257
 11
138.280422
 21
2165.942257
  0
LINE
  8
0
  6
CONTINUOUS
 62
     7
 10
137.030422
 20
2180.692257
 11
137.030422
 21
2164.692257
  0
LINE
  8
0
  6
CONTINUOUS
 62
     7
 10
128.280422
 20
2180.692257
 11
128.280422
 21
2164.692257
  0
LINE
  8
0
  6
CONTINUOUS
 62
     7
 10
137.030422
 20
2123.692257
 11
138.280422
 21
2124.942257
  0
LINE
  8
0
  6
CONTINUOUS
 62
     7
 10
137.030422
 20
2123.692257
 11
128.280422
 21
2123.692257
  0
LINE
  8
0
  6
CONTINUOUS
 62
     7
 10
137.030422
 20
2139.692257
 11
138.280422
 21
2138.442257
  0
LINE
  8
0
  6
CONTINUOUS
 62
     7
 10
137.030422
 20
2139.692257
 11
128.280422
 21
2139.692257
  0
LINE
  8
0
  6
CONTINUOUS
 62
     7
 10
138.280422
 20
2138.442257
 11
138.280422
 21
2124.942257
  0
LINE
  8
0
  6
CONTINUOUS
 62
     7
 10
137.030422
 20
2139.692257
 11
137.030422
 21
2123.692257
  0
LINE
  8
0
  6
CONTINUOUS
 62
     7
 10
128.280422
 20
2139.692257
 11
128.280422
 21
2123.692257
  0
LINE
  8
DELTAWINGS
  6
CONTINUOUS
 62
     3
 10
128.280422
 20
2189.692257
 11
108.280422
 21
2189.692257
  0
CIRCLE
  8
LAYER01
  6
CONTINUOUS
 62
     7
 10
83.89714
 20
3643.252881
 40
30.0
  0
CIRCLE
  8
LAYER01
  6
CONTINUOUS
 62
     7
 10
83.89714
 20
3643.252881
 40
50.0
  0
LINE
  8
RING
  6
CONTINUOUS
 62
     7
 10
353.405075
 20
2113.71614
 11
353.405075
 21
2188.71614
  0
LINE
  8
RING
  6
CONTINUOUS
 62
     7
 10
371.405075
 20
2113.71614
 11
371.405075
 21
2158.71614
  0
LINE
  8
RING
  6
CONTINUOUS
 62
     7
 10
435.405075
 20
2113.71614
 11
435.405075
 21
2158.71614
  0
LINE
  8
RING
  6
CONTINUOUS
 62
     7
 10
453.405075
 20
2113.71614
 11
453.405075
 21
2188.71614
  0
LINE
  8
RING
  6
CONTINUOUS
 62
     7
 10
435.405075
 20
2113.71614
 11
453.405075
 21
2113.71614
  0
LINE
  8
RING
  6
CONTINUOUS
 62
     7
 10
371.405075
 20
2113.71614
 11
435.405075
 21
2113.71614
  0
LINE
  8
RING
  6
CONTINUOUS
 62
     7
 10
371.405075
 20
2113.71614
 11
353.405075
 21
2113.71614
  0
LINE
  8
RING
  6
CONTINUOUS
 62
     7
 10
435.405075
 20
2158.71614
 11
416.405075
 21
2158.71614
  0
LINE
  8
RING
  6
CONTINUOUS
 62
     7
 10
390.405075
 20
2158.71614
 11
371.405075
 21
2158.71614
  0
LINE
  8
RING
  6
CONTINUOUS
 62
     7
 10
390.405075
 20
2158.71614
 11
416.405075
 21
2158.71614
  0
LINE
  8
DEWARASSY
  6
CONTINUOUS
 62
     7
 10
453.405075
 20
2158.71614
 11
453.405075
 21
2188.71614
  0
LINE
  8
RING
  6
CONTINUOUS
 62
     7
 10
390.405075
 20
2158.71614
 11
390.405075
 21
2188.71614
  0
LINE
  8
RING
  6
CONTINUOUS
 62
     7
 10
416.405075
 20
2158.71614
 11
416.405075
 21
2188.71614
  0
LINE
  8
RING
  6
CONTINUOUS
 62
     7
 10
390.405075
 20
2188.71614
 11
353.405075
 21
2188.71614
  0
LINE
  8
RING
  6
CONTINUOUS
 62
     7
 10
453.405075
 20
2188.71614
 11
416.405075
 21
2188.71614
  0
LINE
  8
RING
  6
CONTINUOUS
 62
     7
 10
416.405075
 20
2188.71614
 11
390.405075
 21
2188.71614
  0
CIRCLE
  8
DELTAWINGS
  6
CONTINUOUS
 62
     3
 10
606.076518
 20
2130.71614
 40
7.0
  0
CIRCLE
  8
DELTAWINGS
  6
CONTINUOUS
 62
     3
 10
606.076518
 20
2171.71614
 40
7.0
  0
CIRCLE
  8
DELTAWINGS
  6
CONTINUOUS
 62
     3
 10
646.076546
 20
2130.71614
 40
7.0
  0
ARC
  8
DELTAWINGS
  6
CONTINUOUS
 62
     3
 10
689.438464
 20
2045.628589
 40
5.0
 50
60.802675
 51
217.082518
  0
CIRCLE
  8
DELTAWINGS
  6
CONTINUOUS
 62
     3
 10
646.076546
 20
2171.71614
 40
7.0
  0
LINE
  8
DELTAWINGS
  6
CONTINUOUS
 62
     3
 10
684.074246
 20
2188.71614
 11
584.076518
 21
2188.71614
  0
LINE
  8
DELTAWINGS
  6
CONTINUOUS
 62
     3
 10
584.076518
 20
2188.71614
 11
584.076518
 21
2093.71614
  0
ARC
  8
DELTAWINGS
  6
CONTINUOUS
 62
     3
 10
819.074246
 20
2177.09304
 40
135.0
 50
180.0
 51
240.802675
  0
LINE
  8
DELTAWINGS
  6
CONTINUOUS
 62
     3
 10
684.074246
 20
2177.09304
 11
684.074246
 21
2188.71614
  0
ARC
  8
RING
  6
CONTINUOUS
 62
     7
 10
389.980361
 20
3508.854009
 40
10.0
 50
8.150337
 51
63.877948
  0
ARC
  8
RING
  6
CONTINUOUS
 62
     7
 10
1328.405075
 20
3643.252881
 40
912.0
 50
188.204493
 51
190.0
  0
ARC
  8
RING
  6
CONTINUOUS
 62
     7
 10
435.637005
 20
3514.531572
 40
10.0
 50
130.299131
 51
188.204493
  0
ARC
  8
RING
  6
CONTINUOUS
 62
     7
 10
408.47232
 20
3546.564053
 40
32.0
 50
310.299131
 51
243.877948
  0
ARC
  8
RING
  6
CONTINUOUS
 62
     7
 10
459.1894
 20
3326.88425
 40
13.0
 50
200.0
 51
20.0
  0
ARC
  8
RING
  6
CONTINUOUS
 62
     7
 10
471.552379
 20
3361.459588
 40
10.0
 50
140.299131
 51
198.204493
  0
ARC
  8
RING
  6
CONTINUOUS
 62
     7
 10
427.575259
 20
3347.940088
 40
10.0
 50
18.150337
 51
73.877948
  0
ARC
  8
RING
  6
CONTINUOUS
 62
     7
 10
439.238005
 20
3388.288327
 40
32.0
 50
320.299131
 51
253.877948
  0
ARC
  8
RING
  6
CONTINUOUS
 62
     7
 10
1328.405075
 20
3643.252881
 40
912.0
 50
198.204493
 51
200.0
  0
ARC
  8
RING
  6
CONTINUOUS
 62
     7
 10
1328.405075
 20
3643.252881
 40
938.0
 50
198.150337
 51
200.0
  0
ARC
  8
RING
  6
CONTINUOUS
 62
     7
 10
1328.405075
 20
3643.252881
 40
938.0
 50
188.150337
 51
190.0
  0
ARC
  8
RING
  6
CONTINUOUS
 62
     7
 10
417.457902
 20
3482.628318
 40
13.0
 50
190.0
 51
10.0
  0
ARC
  8
RING
  6
CONTINUOUS
 62
     7
 10
1328.405075
 20
3643.252881
 40
899.5
 50
225.0
 51
229.0
  0
ARC
  8
RING
  6
CONTINUOUS
 62
     7
 10
674.331301
 20
2989.17911
 40
25.5
 50
45.0
 51
225.0
  0
ARC
  8
RING
  6
CONTINUOUS
 62
     7
 10
721.550472
 20
2945.146521
 40
25.5
 50
229.0
 51
49.0
  0
ARC
  8
RING
  6
CONTINUOUS
 62
     7
 10
1328.405075
 20
3643.252881
 40
950.5
 50
225.0
 51
229.0
  0
LINE
  8
LAYER01
  6
CONTINUOUS
 62
     3
 10
868.405075
 20
1318.96614
 11
868.405075
 21
2113.71614
  0
LINE
  8
LAYER01
  6
CONTINUOUS
 62
     3
 10
888.405075
 20
1318.96614
 11
888.405075
 21
2113.71614
  0
LINE
  8
DELTAWINGBRACKET
  6
CONTINUOUS
 62
     1
 10
868.405075
 20
1986.62548
 11
868.405075
 21
1776.62548
  0
LINE
  8
0
  6
CONTINUOUS
 62
     3
 10
1730.405075
 20
1720.628202
 11
1730.405075
 21
1910.412848
  0
LINE
  8
DELTAWINGBRACKET
  6
CONTINUOUS
 62
     1
 10
926.505075
 20
1716.62548
 11
926.505075
 21
1956.62548
  0
LINE
  8
DELTAWINGBRACKET
  6
CONTINUOUS
 62
     1
 10
888.405075
 20
1716.62548
 11
888.405075
 21
1956.62548
  0
LINE
  8
DELTAWINGBRACKET
  6
CONTINUOUS
 62
     1
 10
897.930075
 20
1716.62548
 11
897.930075
 21
1956.62548
  0
LINE
  8
DELTAWINGBRACKET
  6
CONTINUOUS
 62
     1
 10
858.880075
 20
1986.62548
 11
858.880075
 21
1776.62548
  0
LINE
  8
DELTAWINGBRACKET
  6
CONTINUOUS
 62
     1
 10
830.305075
 20
1986.62548
 11
830.305075
 21
1776.62548
  0
LINE
  8
0
  6
CONTINUOUS
 62
     3
 10
926.405075
 20
1910.412848
 11
926.405075
 21
1720.628202
  0
LINE
  8
DELTAWINGS
  6
CONTINUOUS
 62
     3
 10
933.844169
 20
1914.777573
 11
1048.324239
 21
1850.803839
  0
LINE
  8
0
  6
CONTINUOUS
 62
     3
 10
830.405075
 20
1969.647751
 11
830.405075
 21
1865.734443
  0
LINE
  8
DELTAWINGS
  6
CONTINUOUS
 62
     3
 10
1608.485911
 20
1850.803839
 11
1722.96598
 21
1914.777573
  0
CIRCLE
  8
DELTAWINGS
  6
CONTINUOUS
 62
     3
 10
1328.405075
 20
1734.71614
 40
112.0
  0
LINE
  8
DELTAWINGS
  6
CONTINUOUS
 62
     3
 10
1184.760119
 20
1318.96614
 11
1472.050031
 21
1318.96614
  0
CIRCLE
  8
LAYER01
  6
CONTINUOUS
 62
     3
 10
1328.405075
 20
1450.96614
 40
90.0
  0
CIRCLE
  8
LAYER01
  6
CONTINUOUS
 62
     3
 10
1328.405075
 20
1734.71614
 40
109.0
  0
LINE
  8
DELTAWINGS
  6
CONTINUOUS
 62
     3
 10
963.184659
 20
1709.744932
 11
1050.08004
 21
1843.718298
  0
LINE
  8
DELTAWINGS
  6
CONTINUOUS
 62
     3
 10
1009.059604
 20
1614.4532
 11
1150.736878
 21
1427.003411
  0
LINE
  8
DELTAWINGS
  6
CONTINUOUS
 62
     3
 10
1010.167477
 20
1660.468023
 11
1154.725718
 21
1660.468023
  0
LINE
  8
DELTAWINGS
  6
CONTINUOUS
 62
     3
 10
1013.048443
 20
1622.468023
 11
1154.725718
 21
1622.468023
  0
LINE
  8
DELTAWINGS
  6
CONTINUOUS
 62
     3
 10
1005.972581
 20
1668.18884
 11
1086.16655
 21
1791.830117
  0
LINE
  8
2-3BODY
  6
CONTINUOUS
 62
     7
 10
926.505075
 20
1853.71114
 11
1048.324239
 21
1853.71114
  0
LINE
  8
DEWARASSY
  6
CONTINUOUS
 62
     7
 10
898.405075
 20
1564.96614
 11
898.405075
 21
1276.21614
  0
LINE
  8
2-3BODY
  6
CONTINUOUS
 62
     7
 10
898.405075
 20
1276.21114
 11
898.405075
 21
1688.301294
  0
LINE
  8
DELTAWINGS
  6
CONTINUOUS
 62
     3
 10
868.405075
 20
1318.96614
 11
888.405075
 21
1318.96614
  0
LINE
  8
0
  6
CONTINUOUS
 62
     3
 10
868.405075
 20
1861.066358
 11
868.405075
 21
1737.527876
  0
LINE
  8
DEWARASSY
  6
CONTINUOUS
 62
     7
 10
898.405075
 20
1697.835599
 11
898.405075
 21
1564.96614
  0
LINE
  8
0
  6
HIDDEN
 62
     3
 10
888.405075
 20
1854.436358
 11
868.405075
 21
1854.436358
  0
LINE
  8
0
  6
HIDDEN
 62
     3
 10
888.405075
 20
1861.066358
 11
868.405075
 21
1861.066358
  0
LINE
  8
0
  6
CONTINUOUS
 62
     3
 10
868.405075
 20
1861.066358
 11
868.405075
 21
1737.527876
  0
LINE
  8
0
  6
CONTINUOUS
 62
     3
 10
888.405075
 20
1861.066358
 11
868.405075
 21
1861.066358
  0
LINE
  8
0
  6
CONTINUOUS
 62
     3
 10
868.405075
 20
1861.066358
 11
868.405075
 21
1726.994709
  0
LINE
  8
0
  6
CONTINUOUS
 62
     3
 10
888.405075
 20
1861.066358
 11
888.405075
 21
1701.199099
  0
ARC
  8
DELTAWINGS
  6
CONTINUOUS
 62
     3
 10
946.405075
 20
1720.628202
 40
20.0
 50
180.0
 51
327.032481
  0
LINE
  8
DELTAWINGBRACKET
  6
CONTINUOUS
 62
     1
 10
830.305075
 20
1776.62548
 11
868.405075
 21
1776.62548
  0
CIRCLE
  8
DELTAWINGS
  6
CONTINUOUS
 62
     3
 10
844.405075
 20
1791.62548
 40
3.0
  0
CIRCLE
  8
DELTAWINGS
  6
CONTINUOUS
 62
     3
 10
912.405075
 20
1791.62548
 40
3.0
  0
LINE
  8
DELTAWINGBRACKET
  6
CONTINUOUS
 62
     1
 10
926.505075
 20
1716.62548
 11
888.405075
 21
1716.62548
  0
CIRCLE
  8
DELTAWINGS
  6
CONTINUOUS
 62
     3
 10
912.405075
 20
1731.62548
 40
3.0
  0
CIRCLE
  8
DELTAWINGS
  6
CONTINUOUS
 62
     3
 10
912.405075
 20
1761.62548
 40
3.0
  0
ARC
  8
DELTAWINGS
  6
CONTINUOUS
 62
     3
 10
1010.167477
 20
1665.468023
 40
5.0
 50
147.032481
 51
270.0
  0
ARC
  8
DELTAWINGS
  6
CONTINUOUS
 62
     3
 10
1013.048443
 20
1617.468023
 40
5.0
 50
90.0
 51
217.082518
  0
CIRCLE
  8
DELTAWINGS
  6
CONTINUOUS
 62
     3
 10
844.405075
 20
1821.62548
 40
3.0
  0
CIRCLE
  8
DELTAWINGS
  6
CONTINUOUS
 62
     3
 10
844.405075
 20
1851.62548
 40
3.0
  0
ARC
  8
DELTAWINGS
  6
CONTINUOUS
 62
     3
 10
825.405075
 20
1865.734443
 40
5.0
 50
217.082518
 51
0.0
  0
CIRCLE
  8
DELTAWINGS
  6
CONTINUOUS
 62
     3
 10
912.405075
 20
1821.62548
 40
3.0
  0
CIRCLE
  8
DELTAWINGS
  6
CONTINUOUS
 62
     3
 10
912.405075
 20
1851.62548
 40
3.0
  0
LINE
  8
0
  6
CONTINUOUS
 62
     3
 10
888.405075
 20
1861.066358
 11
868.405075
 21
1861.066358
  0
LINE
  8
LAYER01
  6
CONTINUOUS
 62
     7
 10
898.405075
 20
1564.96114
 11
994.033869
 21
1564.96114
  0
LINE
  8
2-3BODY
  6
CONTINUOUS
 62
     7
 10
1118.157474
 20
1276.21114
 11
1118.157474
 21
1404.868933
  0
CIRCLE
  8
DELTAWINGS
  6
CONTINUOUS
 62
     3
 10
1215.405075
 20
1351.96614
 40
7.0
  0
CIRCLE
  8
2-3BODY
  6
HIDDEN
 62
     3
 10
1256.280183
 20
1662.591248
 40
3.0
  0
CIRCLE
  8
2-3BODY
  6
CONTINUOUS
 62
     3
 10
1256.280183
 20
1662.591248
 40
2.012317
  0
CIRCLE
  8
2-3BODY
  6
HIDDEN
 62
     3
 10
1229.880641
 20
1708.316597
 40
3.0
  0
CIRCLE
  8
2-3BODY
  6
CONTINUOUS
 62
     3
 10
1229.880641
 20
1708.316597
 40
2.012317
  0
CIRCLE
  8
2-3BODY
  6
CONTINUOUS
 62
     3
 10
1229.880641
 20
1761.115682
 40
2.012317
  0
CIRCLE
  8
2-3BODY
  6
HIDDEN
 62
     3
 10
1256.280183
 20
1806.841031
 40
3.0
  0
CIRCLE
  8
2-3BODY
  6
CONTINUOUS
 62
     3
 10
1256.280183
 20
1806.841031
 40
2.012317
  0
CIRCLE
  8
2-3BODY
  6
HIDDEN
 62
     3
 10
1229.880641
 20
1761.115682
 40
3.0
  0
ARC
  8
DELTAWINGS
  6
CONTINUOUS
 62
     3
 10
1119.725718
 20
1770.063576
 40
40.0
 50
0.0
 51
147.032481
  0
LINE
  8
DELTAWINGS
  6
CONTINUOUS
 62
     3
 10
1159.725718
 20
1430.018234
 11
1159.725718
 21
1617.468023
  0
ARC
  8
DELTAWINGS
  6
CONTINUOUS
 62
     3
 10
1154.725718
 20
1430.018234
 40
5.0
 50
217.082518
 51
0.0
  0
CIRCLE
  8
DELTAWINGS
  6
CONTINUOUS
 62
     3
 10
1215.405075
 20
1549.96614
 40
7.0
  0
LINE
  8
DELTAWINGS
  6
CONTINUOUS
 62
     3
 10
1159.725718
 20
1770.063576
 11
1159.725718
 21
1665.468023
  0
ARC
  8
DELTAWINGS
  6
CONTINUOUS
 62
     3
 10
1154.725718
 20
1617.468023
 40
5.0
 50
0.0
 51
90.0
  0
ARC
  8
DELTAWINGS
  6
CONTINUOUS
 62
     3
 10
1154.725718
 20
1665.468023
 40
5.0
 50
270.0
 51
360.0
  0
CIRCLE
  8
DELTAWINGS
  6
CONTINUOUS
 62
     3
 10
1215.405075
 20
1640.71614
 40
7.0
  0
ARC
  8
DELTAWINGS
  6
CONTINUOUS
 62
     3
 10
1045.885144
 20
1846.439115
 40
5.0
 50
327.032481
 51
60.802675
  0
CIRCLE
  8
DELTAWINGS
  6
CONTINUOUS
 62
     3
 10
1215.405075
 20
1838.71614
 40
7.0
  0
LINE
  8
2-3BODY
  6
CONTINUOUS
 62
     7
 10
1118.157474
 20
1810.032822
 11
1118.157474
 21
1660.468023
  0
LINE
  8
2-3BODY
  6
CONTINUOUS
 62
     7
 10
1118.157474
 20
1470.108436
 11
1118.157474
 21
1622.468023
  0
LINE
  8
LAYER01
  6
CONTINUOUS
 62
     7
 10
1046.466422
 20
1564.96114
 11
1159.725718
 21
1564.96114
  0
ARC
  8
DELTAWINGS
  6
CONTINUOUS
 62
     3
 10
1537.084432
 20
1770.063576
 40
40.0
 50
32.967519
 51
180.0
  0
LINE
  8
DELTAWINGS
  6
CONTINUOUS
 62
     3
 10
1506.073272
 20
1427.003411
 11
1647.750546
 21
1614.4532
  0
LINE
  8
DELTAWINGS
  6
CONTINUOUS
 62
     3
 10
1502.084432
 20
1622.468023
 11
1643.761706
 21
1622.468023
  0
LINE
  8
DELTAWINGS
  6
CONTINUOUS
 62
     3
 10
1646.642672
 20
1660.468023
 11
1502.084432
 21
1660.468023
  0
LINE
  8
LAYER01
  6
CONTINUOUS
 62
     7
 10
1500.0
 20
1564.96114
 11
1610.343728
 21
1564.96114
  0
CIRCLE
  8
DELTAWINGS
  6
CONTINUOUS
 62
     3
 10
1441.405075
 20
1351.96614
 40
7.0
  0
CIRCLE
  8
2-3BODY
  6
HIDDEN
 62
     3
 10
1354.804617
 20
1833.240574
 40
3.0
  0
CIRCLE
  8
2-3BODY
  6
CONTINUOUS
 62
     3
 10
1354.804617
 20
1833.240574
 40
2.012317
  0
CIRCLE
  8
2-3BODY
  6
HIDDEN
 62
     3
 10
1302.005532
 20
1833.240574
 40
3.0
  0
CIRCLE
  8
2-3BODY
  6
CONTINUOUS
 62
     3
 10
1302.005532
 20
1833.240574
 40
2.012317
  0
CIRCLE
  8
2-3BODY
  6
HIDDEN
 62
     3
 10
1302.005532
 20
1636.191705
 40
3.0
  0
CIRCLE
  8
2-3BODY
  6
CONTINUOUS
 62
     3
 10
1302.005532
 20
1636.191705
 40
2.012317
  0
CIRCLE
  8
2-3BODY
  6
CONTINUOUS
 62
     3
 10
1400.529966
 20
1662.591248
 40
2.012317
  0
CIRCLE
  8
2-3BODY
  6
HIDDEN
 62
     3
 10
1354.804617
 20
1636.191705
 40
3.0
  0
CIRCLE
  8
2-3BODY
  6
CONTINUOUS
 62
     3
 10
1354.804617
 20
1636.191705
 40
2.012317
  0
CIRCLE
  8
2-3BODY
  6
HIDDEN
 62
     3
 10
1400.529966
 20
1662.591248
 40
3.0
  0
CIRCLE
  8
2-3BODY
  6
HIDDEN
 62
     3
 10
1426.929509
 20
1708.316597
 40
3.0
  0
CIRCLE
  8
2-3BODY
  6
CONTINUOUS
 62
     3
 10
1426.929509
 20
1708.316597
 40
2.012317
  0
CIRCLE
  8
2-3BODY
  6
CONTINUOUS
 62
     3
 10
1426.929509
 20
1761.115682
 40
2.012317
  0
CIRCLE
  8
2-3BODY
  6
CONTINUOUS
 62
     3
 10
1400.529966
 20
1806.841031
 40
2.012317
  0
CIRCLE
  8
2-3BODY
  6
HIDDEN
 62
     3
 10
1426.929509
 20
1761.115682
 40
3.0
  0
CIRCLE
  8
2-3BODY
  6
HIDDEN
 62
     3
 10
1400.529966
 20
1806.841031
 40
3.0
  0
CIRCLE
  8
DELTAWINGS
  6
CONTINUOUS
 62
     3
 10
1441.405075
 20
1549.96614
 40
7.0
  0
CIRCLE
  8
DELTAWINGS
  6
CONTINUOUS
 62
     3
 10
1441.405075
 20
1640.71614
 40
7.0
  0
LINE
  8
DELTAWINGS
  6
CONTINUOUS
 62
     3
 10
1497.084432
 20
1430.018234
 11
1497.084432
 21
1617.468023
  0
ARC
  8
DELTAWINGS
  6
CONTINUOUS
 62
     3
 10
1502.084432
 20
1430.018234
 40
5.0
 50
180.0
 51
322.917482
  0
LINE
  8
DELTAWINGS
  6
CONTINUOUS
 62
     3
 10
1497.084432
 20
1770.063576
 11
1497.084432
 21
1665.468023
  0
ARC
  8
DELTAWINGS
  6
CONTINUOUS
 62
     3
 10
1502.084432
 20
1665.468023
 40
5.0
 50
180.0
 51
270.0
  0
ARC
  8
DELTAWINGS
  6
CONTINUOUS
 62
     3
 10
1502.084432
 20
1617.468023
 40
5.0
 50
90.0
 51
180.0
  0
CIRCLE
  8
DELTAWINGS
  6
CONTINUOUS
 62
     3
 10
1441.405075
 20
1838.71614
 40
7.0
  0
LINE
  8
2-3BODY
  6
CONTINUOUS
 62
     7
 10
1538.652676
 20
1276.21114
 11
1538.652676
 21
1404.868933
  0
LINE
  8
DELTAWINGS
  6
CONTINUOUS
 62
     3
 10
1693.625491
 20
1709.744932
 11
1606.730109
 21
1843.718298
  0
LINE
  8
DELTAWINGS
  6
CONTINUOUS
 62
     3
 10
1650.837568
 20
1668.18884
 11
1570.6436
 21
1791.830117
  0
ARC
  8
DELTAWINGS
  6
CONTINUOUS
 62
     3
 10
1710.405075
 20
1720.628202
 40
20.0
 50
212.967519
 51
0.0
  0
ARC
  8
DELTAWINGS
  6
CONTINUOUS
 62
     3
 10
1643.761706
 20
1617.468023
 40
5.0
 50
322.917482
 51
90.0
  0
ARC
  8
DELTAWINGS
  6
CONTINUOUS
 62
     3
 10
1646.642672
 20
1665.468023
 40
5.0
 50
270.0
 51
32.967519
  0
CIRCLE
  8
DELTAWINGS
  6
CONTINUOUS
 62
     3
 10
1744.405075
 20
1791.62548
 40
3.0
  0
CIRCLE
  8
DELTAWINGS
  6
CONTINUOUS
 62
     3
 10
1744.405075
 20
1731.62548
 40
3.0
  0
CIRCLE
  8
DELTAWINGS
  6
CONTINUOUS
 62
     3
 10
1744.405075
 20
1761.62548
 40
3.0
  0
ARC
  8
DELTAWINGS
  6
CONTINUOUS
 62
     3
 10
1610.925005
 20
1846.439115
 40
5.0
 50
119.197325
 51
212.967519
  0
CIRCLE
  8
DELTAWINGS
  6
CONTINUOUS
 62
     3
 10
1744.405075
 20
1821.62548
 40
3.0
  0
CIRCLE
  8
DELTAWINGS
  6
CONTINUOUS
 62
     3
 10
1744.405075
 20
1851.62548
 40
3.0
  0
LINE
  8
2-3BODY
  6
CONTINUOUS
 62
     7
 10
1538.652676
 20
1470.108436
 11
1538.652676
 21
1622.468023
  0
LINE
  8
2-3BODY
  6
CONTINUOUS
 62
     7
 10
1538.652676
 20
1810.032822
 11
1538.652676
 21
1660.468023
  0
LINE
  8
LAYER01
  6
CONTINUOUS
 62
     7
 10
1662.776281
 20
1564.96114
 11
1700.0
 21
1564.96114
  0
LINE
  8
2-3BODY
  6
CONTINUOUS
 62
     7
 10
1613.688484
 20
1853.71114
 11
1730.405075
 21
1853.71114
  0
LINE
  8
LAYER01
  6
CONTINUOUS
 62
     3
 10
1097.747169
 20
1881.71614
 11
1559.06298
 21
1881.71614
  0
LINE
  8
DEWARASSY
  6
CONTINUOUS
 62
     7
 10
1093.8658
 20
1883.71614
 11
1562.944349
 21
1883.71614
  0
LINE
  8
2-3BODY
  6
CONTINUOUS
 62
     7
 10
1195.740083
 20
3213.252881
 11
1461.070066
 21
3213.252881
  0
ARC
  8
RING
  6
CONTINUOUS
 62
     7
 10
1328.405075
 20
3643.252881
 40
975.0
 50
246.870225
 51
293.129775
  0
CIRCLE
  8
LAYER01
  6
CONTINUOUS
 62
     7
 10
1328.405075
 20
2398.744946
 40
50.0
  0
ARC
  8
RING
  6
CONTINUOUS
 62
     7
 10
952.173679
 20
2798.223333
 40
32.0
 50
10.299131
 51
303.877948
  0
CIRCLE
  8
DELTAWINGS
  6
CONTINUOUS
 62
     3
 10
844.405075
 20
1911.62548
 40
3.0
  0
CIRCLE
  8
DELTAWINGS
  6
CONTINUOUS
 62
     3
 10
844.405075
 20
1881.62548
 40
3.0
  0
CIRCLE
  8
DELTAWINGS
  6
CONTINUOUS
 62
     3
 10
912.405075
 20
1911.62548
 40
3.0
  0
ARC
  8
DELTAWINGS
  6
CONTINUOUS
 62
     3
 10
931.405075
 20
1910.412848
 40
5.0
 50
60.802675
 51
180.0
  0
CIRCLE
  8
DELTAWINGS
  6
CONTINUOUS
 62
     3
 10
912.405075
 20
1881.62548
 40
3.0
  0
LINE
  8
DELTAWINGBRACKET
  6
CONTINUOUS
 62
     1
 10
830.305075
 20
1986.62548
 11
868.405075
 21
1986.62548
  0
CIRCLE
  8
DELTAWINGS
  6
CONTINUOUS
 62
     3
 10
844.405075
 20
1941.62548
 40
3.0
  0
CIRCLE
  8
DELTAWINGS
  6
CONTINUOUS
 62
     3
 10
844.405075
 20
1971.62548
 40
3.0
  0
ARC
  8
DELTAWINGS
  6
CONTINUOUS
 62
     3
 10
825.405075
 20
1969.647751
 40
5.0
 50
0.0
 51
60.802675
  0
LINE
  8
0
  6
CONTINUOUS
 62
     7
 10
904.905075
 20
1941.62548
 11
919.905075
 21
1941.62548
  0
LINE
  8
DELTAWINGBRACKET
  6
CONTINUOUS
 62
     1
 10
926.505075
 20
1956.62548
 11
888.405075
 21
1956.62548
  0
LINE
  8
0
  6
CONTINUOUS
 62
     7
 10
912.405075
 20
1934.12548
 11
912.405075
 21
1949.12548
  0
CIRCLE
  8
DELTAWINGS
  6
CONTINUOUS
 62
     3
 10
912.405075
 20
1941.62548
 40
3.0
  0
LINE
  8
DEWARASSY
  6
CONTINUOUS
 62
     7
 10
1013.405075
 20
1925.176108
 11
1013.405075
 21
2188.71614
  0
ARC
  8
RING
  6
CONTINUOUS
 62
     7
 10
1328.405075
 20
3643.252881
 40
912.0
 50
248.204493
 51
250.0
  0
ARC
  8
RING
  6
CONTINUOUS
 62
     7
 10
993.496964
 20
2805.7324
 40
10.0
 50
190.299131
 51
248.204493
  0
ARC
  8
RING
  6
CONTINUOUS
 62
     7
 10
1328.405075
 20
3643.252881
 40
938.0
 50
248.150337
 51
250.0
  0
ARC
  8
RING
  6
CONTINUOUS
 62
     7
 10
975.585554
 20
2763.353804
 40
10.0
 50
68.150337
 51
123.877948
  0
ARC
  8
RING
  6
CONTINUOUS
 62
     7
 10
1012.036441
 20
2774.037208
 40
13.0
 50
250.0
 51
70.0
  0
ARC
  8
RING
  6
CONTINUOUS
 62
     7
 10
1328.405075
 20
3643.252881
 40
938.0
 50
258.150337
 51
260.0
  0
ARC
  8
RING
  6
CONTINUOUS
 62
     7
 10
1133.738548
 20
2715.454982
 40
10.0
 50
78.150337
 51
133.877948
  0
ARC
  8
RING
  6
CONTINUOUS
 62
     7
 10
1328.405075
 20
3643.252881
 40
912.0
 50
258.204493
 51
260.0
  0
ARC
  8
RING
  6
CONTINUOUS
 62
     7
 10
1144.018876
 20
2760.300035
 40
10.0
 50
200.299131
 51
258.204493
  0
ARC
  8
RING
  6
CONTINUOUS
 62
     7
 10
1167.780509
 20
2732.305711
 40
13.0
 50
260.0
 51
80.0
  0
ARC
  8
RING
  6
CONTINUOUS
 62
     7
 10
1104.627321
 20
2745.729334
 40
32.0
 50
20.299131
 51
313.877948
  0
LINE
  8
2-3BODY
  6
CONTINUOUS
 62
     7
 10
930.540844
 20
3433.005281
 11
1118.157474
 21
3245.38865
  0
LINE
  8
DELTAWINGS
  6
CONTINUOUS
 62
     3
 10
868.405075
 20
3183.252881
 11
868.405075
 21
2898.924325
  0
LINE
  8
DELTAWINGS
  6
CONTINUOUS
 62
     3
 10
888.405075
 20
3183.252881
 11
888.405075
 21
2886.929538
  0
ARC
  8
DELTAWINGS
  6
CONTINUOUS
 62
     3
 10
863.405075
 20
3138.252881
 40
5.0
 50
180.0
 51
270.0
  0
ARC
  8
DELTAWINGS
  6
CONTINUOUS
 62
     3
 10
893.405075
 20
3138.252881
 40
5.0
 50
270.0
 51
0.0
  0
LINE
  8
DELTAWINGS
  6
CONTINUOUS
 62
     3
 10
863.405075
 20
3133.252881
 11
868.405075
 21
3133.252881
  0
LINE
  8
DELTAWINGS
  6
CONTINUOUS
 62
     3
 10
893.405075
 20
3133.252881
 11
888.405075
 21
3133.252881
  0
ARC
  8
DELTAWINGS
  6
CONTINUOUS
 62
     3
 10
823.405075
 20
3178.252881
 40
5.0
 50
180.0
 51
270.0
  0
LINE
  8
DELTAWINGS
  6
CONTINUOUS
 62
     3
 10
818.405075
 20
3178.252881
 11
818.405075
 21
3183.252881
  0
LINE
  8
DELTAWINGS
  6
CONTINUOUS
 62
     3
 10
848.405075
 20
3173.252881
 11
823.405075
 21
3173.252881
  0
LINE
  8
DELTAWINGS
  6
CONTINUOUS
 62
     3
 10
858.405075
 20
3138.252881
 11
858.405075
 21
3163.252881
  0
ARC
  8
DELTAWINGS
  6
CONTINUOUS
 62
     3
 10
848.405075
 20
3163.252881
 40
10.0
 50
0.0
 51
90.0
  0
ARC
  8
DELTAWINGS
  6
CONTINUOUS
 62
     3
 10
933.405075
 20
3178.252881
 40
5.0
 50
270.0
 51
0.0
  0
LINE
  8
DELTAWINGS
  6
CONTINUOUS
 62
     3
 10
938.405075
 20
3178.252881
 11
938.405075
 21
3183.252881
  0
LINE
  8
DELTAWINGS
  6
CONTINUOUS
 62
     3
 10
908.405075
 20
3173.252881
 11
933.405075
 21
3173.252881
  0
LINE
  8
DELTAWINGS
  6
CONTINUOUS
 62
     3
 10
898.405075
 20
3138.252881
 11
898.405075
 21
3163.252881
  0
ARC
  8
DELTAWINGS
  6
CONTINUOUS
 62
     3
 10
908.405075
 20
3163.252881
 40
10.0
 50
90.0
 51
180.0
  0
ARC
  8
DELTAWINGS
  6
CONTINUOUS
 62
     3
 10
933.405075
 20
3208.252881
 40
5.0
 50
0.0
 51
90.0
  0
LINE
  8
DELTAWINGS
  6
CONTINUOUS
 62
     3
 10
938.405075
 20
3208.252881
 11
938.405075
 21
3203.252881
  0
LINE
  8
DELTAWINGS
  6
CONTINUOUS
 62
     3
 10
908.405075
 20
3213.252881
 11
933.405075
 21
3213.252881
  0
ARC
  8
DELTAWINGS
  6
CONTINUOUS
 62
     3
 10
893.405075
 20
3248.252881
 40
5.0
 50
360.0
 51
90.0
  0
LINE
  8
DELTAWINGS
  6
CONTINUOUS
 62
     3
 10
893.405075
 20
3253.252881
 11
888.405075
 21
3253.252881
  0
LINE
  8
DELTAWINGS
  6
CONTINUOUS
 62
     3
 10
898.405075
 20
3248.252881
 11
898.405075
 21
3223.252881
  0
ARC
  8
DELTAWINGS
  6
CONTINUOUS
 62
     3
 10
908.405075
 20
3223.252881
 40
10.0
 50
180.0
 51
270.0
  0
ARC
  8
DELTAWINGS
  6
CONTINUOUS
 62
     3
 10
823.405075
 20
3208.252881
 40
5.0
 50
90.0
 51
180.0
  0
LINE
  8
DELTAWINGS
  6
CONTINUOUS
 62
     3
 10
818.405075
 20
3208.252881
 11
818.405075
 21
3203.252881
  0
LINE
  8
DELTAWINGS
  6
CONTINUOUS
 62
     3
 10
848.405075
 20
3213.252881
 11
823.405075
 21
3213.252881
  0
ARC
  8
DELTAWINGS
  6
CONTINUOUS
 62
     3
 10
863.405075
 20
3248.252881
 40
5.0
 50
90.0
 51
180.0
  0
LINE
  8
DELTAWINGS
  6
CONTINUOUS
 62
     3
 10
863.405075
 20
3253.252881
 11
868.405075
 21
3253.252881
  0
LINE
  8
DELTAWINGS
  6
CONTINUOUS
 62
     3
 10
858.405075
 20
3248.252881
 11
858.405075
 21
3223.252881
  0
ARC
  8
DELTAWINGS
  6
CONTINUOUS
 62
     3
 10
848.405075
 20
3223.252881
 40
10.0
 50
270.0
 51
0.0
  0
LINE
  8
DELTAWINGS
  6
CONTINUOUS
 62
     3
 10
888.405075
 20
3203.252881
 11
868.405075
 21
3203.252881
  0
LINE
  8
DELTAWINGS
  6
CONTINUOUS
 62
     3
 10
888.405075
 20
3183.252881
 11
868.405075
 21
3183.252881
  0
POLYLINE
  8
DELTAWINGS
  6
CONTINUOUS
 62
     3
 66
     1
 70
     1
  0
VERTEX
  8
DIMENSIONS
 10
898.405075
 20
3563.252881
  0
VERTEX
  8
DIMENSIONS
 10
898.405075
 20
3513.252881
  0
VERTEX
  8
DIMENSIONS
 10
888.405075
 20
3513.252881
  0
VERTEX
  8
DIMENSIONS
 10
888.405075
 20
3563.252881
  0
SEQEND
  8
DIMENSIONS
  0
ARC
  8
2-3BODY
  6
CONTINUOUS
 62
     7
 10
1328.405075
 20
3643.252881
 40
450.0
 50
197.14621
 51
207.85379
  0
ARC
  8
2-3BODY
  6
CONTINUOUS
 62
     7
 10
1328.405075
 20
3643.252881
 40
450.0
 50
242.14621
 51
252.85379
  0
POLYLINE
  8
DELTAWINGS
  6
CONTINUOUS
 62
     3
 66
     1
 70
     1
  0
VERTEX
  8
DIMENSIONS
 10
1198.405075
 20
3213.252881
  0
VERTEX
  8
DIMENSIONS
 10
1248.405075
 20
3213.252881
  0
VERTEX
  8
DIMENSIONS
 10
1248.405075
 20
3203.252881
  0
VERTEX
  8
DIMENSIONS
 10
1198.405075
 20
3203.252881
  0
SEQEND
  8
DIMENSIONS
  0
LINE
  8
DEWARASSY
  6
CONTINUOUS
 62
     7
 10
1463.405075
 20
1883.71614
 11
1535.108743
 21
1883.71614
  0
ARC
  8
RING
  6
CONTINUOUS
 62
     7
 10
1328.405075
 20
3643.252881
 40
938.0
 50
278.150337
 51
280.0
  0
ARC
  8
RING
  6
CONTINUOUS
 62
     7
 10
1328.405075
 20
3643.252881
 40
912.0
 50
278.204493
 51
280.0
  0
ARC
  8
RING
  6
CONTINUOUS
 62
     7
 10
1489.029638
 20
2732.30571
 40
13.0
 50
280.0
 51
100.0
  0
ARC
  8
RING
  6
CONTINUOUS
 62
     7
 10
1457.126385
 20
2750.484813
 40
10.0
 50
220.299131
 51
278.204493
  0
ARC
  8
RING
  6
CONTINUOUS
 62
     7
 10
1425.093903
 20
2723.320128
 40
32.0
 50
40.299131
 51
333.877948
  0
ARC
  8
RING
  6
CONTINUOUS
 62
     7
 10
1462.803946
 20
2704.828168
 40
10.0
 50
98.150337
 51
153.877948
  0
CIRCLE
  8
LAYER01
  6
CONTINUOUS
 62
     7
 10
1328.405075
 20
2398.744946
 40
30.0
  0
CIRCLE
  8
DELTAWINGS
  6
CONTINUOUS
 62
     3
 10
1744.405075
 20
1911.62548
 40
3.0
  0
ARC
  8
DELTAWINGS
  6
CONTINUOUS
 62
     3
 10
1725.405075
 20
1910.412848
 40
5.0
 50
0.0
 51
119.197325
  0
CIRCLE
  8
DELTAWINGS
  6
CONTINUOUS
 62
     3
 10
1744.405075
 20
1881.62548
 40
3.0
  0
CIRCLE
  8
DELTAWINGS
  6
CONTINUOUS
 62
     3
 10
1744.405075
 20
1941.62548
 40
3.0
  0
LINE
  8
DEWARASSY
  6
CONTINUOUS
 62
     7
 10
1643.405075
 20
1925.176109
 11
1643.405075
 21
2188.71614
  0
ARC
  8
RING
  6
CONTINUOUS
 62
     7
 10
1644.773706
 20
2774.037207
 40
13.0
 50
290.0
 51
110.0
  0
ARC
  8
RING
  6
CONTINUOUS
 62
     7
 10
1610.198367
 20
2786.400187
 40
10.0
 50
230.299131
 51
288.204493
  0
ARC
  8
RING
  6
CONTINUOUS
 62
     7
 10
1623.717866
 20
2742.423067
 40
10.0
 50
108.150337
 51
163.877948
  0
ARC
  8
RING
  6
CONTINUOUS
 62
     7
 10
1583.369629
 20
2754.085813
 40
32.0
 50
50.299131
 51
343.877948
  0
ARC
  8
RING
  6
CONTINUOUS
 62
     7
 10
1328.405075
 20
3643.252881
 40
912.0
 50
288.204493
 51
290.0
  0
ARC
  8
RING
  6
CONTINUOUS
 62
     7
 10
1328.405075
 20
3643.252881
 40
938.0
 50
288.150337
 51
290.0
  0
ARC
  8
2-3BODY
  6
CONTINUOUS
 62
     7
 10
1328.405075
 20
3643.252881
 40
450.0
 50
287.14621
 51
297.85379
  0
POLYLINE
  8
DELTAWINGS
  6
CONTINUOUS
 62
     3
 66
     1
 70
     1
  0
VERTEX
  8
DIMENSIONS
 10
1408.405075
 20
3213.252881
  0
VERTEX
  8
DIMENSIONS
 10
1458.405075
 20
3213.252881
  0
VERTEX
  8
DIMENSIONS
 10
1458.405075
 20
3203.252881
  0
VERTEX
  8
DIMENSIONS
 10
1408.405075
 20
3203.252881
  0
SEQEND
  8
DIMENSIONS
  0
LINE
  8
2-3BODY
  6
CONTINUOUS
 62
     7
 10
1538.652675
 20
3245.38865
 11
1726.269306
 21
3433.005281
  0
LINE
  8
DELTAWINGS
  6
CONTINUOUS
 62
     3
 10
1748.405075
 20
3213.252881
 11
1723.405075
 21
3213.252881
  0
LINE
  8
DELTAWINGS
  6
CONTINUOUS
 62
     3
 10
1748.405075
 20
3173.252881
 11
1723.405075
 21
3173.252881
  0
ARC
  8
DELTAWINGS
  6
CONTINUOUS
 62
     3
 10
1723.405075
 20
3208.252881
 40
5.0
 50
90.0
 51
180.0
  0
LINE
  8
DELTAWINGS
  6
CONTINUOUS
 62
     3
 10
1718.405075
 20
3208.252881
 11
1718.405075
 21
3203.252881
  0
ARC
  8
DELTAWINGS
  6
CONTINUOUS
 62
     3
 10
1723.405075
 20
3178.252881
 40
5.0
 50
180.0
 51
270.0
  0
LINE
  8
DELTAWINGS
  6
CONTINUOUS
 62
     3
 10
1718.405075
 20
3178.252881
 11
1718.405075
 21
3183.252881
  0
ARC
  8
2-3BODY
  6
CONTINUOUS
 62
     7
 10
1328.405075
 20
3643.252881
 40
450.0
 50
332.14621
 51
342.85379
  0
ENDSEC
  0
EOF
